  0
SECTION
  2
HEADER
  9
$ACADVER
  1
AC1009
  9
$INSBASE
 10
0.0
 20
0.0
 30
0.0
  9
$EXTMIN
 10
-170.0164782349211
 20
-265.80211091866681
 30
-0.0015258207003583
  9
$EXTMAX
 10
370.0164807494923
 20
537.08808227102497
 30
0.0000000349246037
  9
$LIMMIN
 10
0.0
 20
0.0
  9
$LIMMAX
 10
0.0
 20
0.0
  9
$ORTHOMODE
 70
     0
  9
$REGENMODE
 70
     1
  9
$FILLMODE
 70
     1
  9
$QTEXTMODE
 70
     0
  9
$MIRRTEXT
 70
     1
  9
$DRAGMODE
 70
     2
  9
$LTSCALE
 40
15.24
  9
$OSMODE
 70
   231
  9
$ATTMODE
 70
     1
  9
$TEXTSIZE
 40
0.0
  9
$TRACEWID
 40
1.0
  9
$TEXTSTYLE
  7
STANDARD
  9
$CLAYER
  8
DATA
  9
$CELTYPE
  6
BYLAYER
  9
$CECOLOR
 62
   256
  9
$DIMSCALE
 40
1.0
  9
$DIMASZ
 40
0.18
  9
$DIMEXO
 40
0.0625
  9
$DIMDLI
 40
0.38
  9
$DIMRND
 40
0.0
  9
$DIMDLE
 40
0.0
  9
$DIMEXE
 40
0.18
  9
$DIMTP
 40
0.0
  9
$DIMTM
 40
0.0
  9
$DIMTXT
 40
0.18
  9
$DIMCEN
 40
0.09
  9
$DIMTSZ
 40
0.0
  9
$DIMTOL
 70
     0
  9
$DIMLIM
 70
     0
  9
$DIMTIH
 70
     1
  9
$DIMTOH
 70
     1
  9
$DIMSE1
 70
     0
  9
$DIMSE2
 70
     0
  9
$DIMTAD
 70
     0
  9
$DIMZIN
 70
     0
  9
$DIMBLK
  1

  9
$DIMASO
 70
     1
  9
$DIMSHO
 70
     1
  9
$DIMPOST
  1

  9
$DIMAPOST
  1

  9
$DIMALT
 70
     0
  9
$DIMALTD
 70
     2
  9
$DIMALTF
 40
25.399999999999999
  9
$DIMLFAC
 40
1.0
  9
$DIMTOFL
 70
     0
  9
$DIMTVP
 40
0.0
  9
$DIMTIX
 70
     0
  9
$DIMSOXD
 70
     0
  9
$DIMSAH
 70
     0
  9
$DIMBLK1
  1

  9
$DIMBLK2
  1

  9
$DIMSTYLE
  2
STANDARD
  9
$DIMCLRD
 70
     0
  9
$DIMCLRE
 70
     0
  9
$DIMCLRT
 70
     0
  9
$DIMTFAC
 40
1.0
  9
$DIMGAP
 40
0.09
  9
$LUNITS
 70
     2
  9
$LUPREC
 70
     4
  9
$SKETCHINC
 40
0.1
  9
$FILLETRAD
 40
0.0
  9
$AUNITS
 70
     0
  9
$AUPREC
 70
     0
  9
$MENU
  1
acad
  9
$ELEVATION
 40
0.0
  9
$PELEVATION
 40
0.0
  9
$THICKNESS
 40
0.0
  9
$LIMCHECK
 70
     0
  9
$BLIPMODE
 70
     0
  9
$CHAMFERA
 40
0.0
  9
$CHAMFERB
 40
0.0
  9
$SKPOLY
 70
     0
  9
$TDCREATE
 40
2456864.6578009259
  9
$TDUPDATE
 40
2456864.6586880321
  9
$TDINDWG
 40
0.0003081019
  9
$TDUSRTIMER
 40
0.0003080671
  9
$USRTIMER
 70
     1
  9
$ANGBASE
 50
0.0
  9
$ANGDIR
 70
     0
  9
$PDMODE
 70
     1
  9
$PDSIZE
 40
-2.0
  9
$PLINEWID
 40
0.0
  9
$COORDS
 70
     2
  9
$SPLFRAME
 70
     0
  9
$SPLINETYPE
 70
     6
  9
$SPLINESEGS
 70
     8
  9
$ATTDIA
 70
     0
  9
$ATTREQ
 70
     1
  9
$HANDLING
 70
     1
  9
$HANDSEED
  5
332
  9
$SURFTAB1
 70
     6
  9
$SURFTAB2
 70
     6
  9
$SURFTYPE
 70
     6
  9
$SURFU
 70
     6
  9
$SURFV
 70
     6
  9
$UCSNAME
  2

  9
$UCSORG
 10
0.0
 20
0.0
 30
0.0
  9
$UCSXDIR
 10
1.0
 20
0.0
 30
0.0
  9
$UCSYDIR
 10
0.0
 20
1.0
 30
0.0
  9
$PUCSNAME
  2

  9
$PUCSORG
 10
0.0
 20
0.0
 30
0.0
  9
$PUCSXDIR
 10
1.0
 20
0.0
 30
0.0
  9
$PUCSYDIR
 10
0.0
 20
1.0
 30
0.0
  9
$USERI1
 70
     0
  9
$USERI2
 70
     0
  9
$USERI3
 70
     0
  9
$USERI4
 70
     0
  9
$USERI5
 70
     0
  9
$USERR1
 40
0.0
  9
$USERR2
 40
0.0
  9
$USERR3
 40
0.0
  9
$USERR4
 40
0.0
  9
$USERR5
 40
0.0
  9
$WORLDVIEW
 70
     1
  9
$SHADEDGE
 70
     3
  9
$SHADEDIF
 70
    70
  9
$TILEMODE
 70
     1
  9
$MAXACTVP
 70
    64
  9
$PLIMCHECK
 70
     0
  9
$PEXTMIN
 10
1.0000000000000000E+020
 20
1.0000000000000000E+020
 30
1.0000000000000000E+020
  9
$PEXTMAX
 10
-1.0000000000000000E+020
 20
-1.0000000000000000E+020
 30
-1.0000000000000000E+020
  9
$PLIMMIN
 10
0.0
 20
0.0
  9
$PLIMMAX
 10
12.0
 20
9.0
  9
$UNITMODE
 70
     0
  9
$VISRETAIN
 70
     0
  9
$PLINEGEN
 70
     1
  9
$PSLTSCALE
 70
     0
  0
ENDSEC
  0
SECTION
  2
TABLES
  0
TABLE
  2
VPORT
 70
     1
  0
VPORT
  2
*ACTIVE
 70
     0
 10
0.0
 20
0.0
 11
1.0
 21
1.0
 12
100.0000012572854
 22
135.64298567617899
 13
0.0
 23
0.0
 14
1.0
 24
1.0
 15
0.0
 25
0.0
 16
0.0
 26
0.0
 36
1.0
 17
0.0
 27
0.0
 37
0.0
 40
809.06627159884329
 41
2.436456996148908
 42
50.0
 43
0.0
 44
0.0
 50
0.0
 51
0.0
 71
     0
 72
  2000
 73
     1
 74
     1
 75
     0
 76
     0
 77
     0
 78
     0
  0
ENDTAB
  0
TABLE
  2
LTYPE
 70
    11
  0
LTYPE
  2
CONTINUOUS
 70
     0
  3
Solid line
 72
    65
 73
     0
 40
0.0
  0
ENDTAB
  0
TABLE
  2
LAYER
 70
     5
  0
LAYER
  2
0
 70
     0
 62
     7
  6
CONTINUOUS
  0
LAYER
  2
DATA
 70
     0
 62
     7
  6
CONTINUOUS
  0
LAYER
  2
HIBINO-BASE
 70
     0
 62
     7
  6
CONTINUOUS
  0
LAYER
  2
SPEC
 70
     0
 62
     7
  6
CONTINUOUS
  0
LAYER
  2
DIMNSIONS
 70
     0
 62
     7
  6
CONTINUOUS
  0
ENDTAB
  0
TABLE
  2
STYLE
 70
     3
  0
STYLE
  2
STANDARD
 70
     0
 40
0.0
 41
1.0
 50
0.0
 71
     0
 42
0.0
  3
txt
  4
BIGFONT.SHX
  0
ENDTAB
  0
TABLE
  2
VIEW
 70
     0
  0
ENDTAB
  0
TABLE
  2
UCS
 70
     0
  0
ENDTAB
  0
TABLE
  2
APPID
 70
     4
  0
APPID
  2
ACAD
 70
     0
  0
APPID
  2
ACADANNOTATIVE
 70
     0
  0
APPID
  2
ACAD_NAV_VCDISPLAY
 70
     0
  0
APPID
  2
ACAD_MLEADERVER
 70
     0
  0
ENDTAB
  0
TABLE
  2
DIMSTYLE
 70
     2
  0
DIMSTYLE
  2
STANDARD
 70
     0
  3

  4

  5

  6

  7

 40
1.0
 41
0.18
 42
0.0625
 43
0.38
 44
0.18
 45
0.0
 46
0.0
 47
0.0
 48
0.0
140
0.18
141
0.09
142
0.0
143
25.399999999999999
144
1.0
145
0.0
146
1.0
147
0.09
 71
     0
 72
     0
 73
     1
 74
     1
 75
     0
 76
     0
 77
     0
 78
     0
170
     0
171
     2
172
     0
173
     0
174
     0
175
     0
176
     0
177
     0
178
     0
  0
ENDTAB
  0
ENDSEC
  0
SECTION
  2
BLOCKS
  0
BLOCK
  8
0
  2
$MODEL_SPACE
 70
     0
 10
0.0
 20
0.0
 30
0.0
  3
$MODEL_SPACE
  1

  0
ENDBLK
  5
29A
  8
0
  0
BLOCK
 67
     1
  8
0
  2
$PAPER_SPACE
 70
     0
 10
0.0
 20
0.0
 30
0.0
  3
$PAPER_SPACE
  1

  0
ENDBLK
  5
296
 67
     1
  8
0
  0
ENDSEC
  0
SECTION
  2
ENTITIES
  0
LINE
  5
2C
  8
HIBINO-BASE
  6
CONTINUOUS
 62
     7
 10
-169.99999999999989
 20
537.06362999999999
 30
0.0
 11
370.0
 21
537.06362999999999
 31
0.0
  0
LINE
  5
2D
  8
HIBINO-BASE
  6
CONTINUOUS
 62
     7
 10
370.0
 20
-242.93637000000001
 30
0.0
 11
-169.99999999999989
 21
-242.93637000000001
 31
0.0
  0
LINE
  5
2E
  8
HIBINO-BASE
  6
CONTINUOUS
 62
     7
 10
-169.99999999999989
 20
-242.93637000000001
 30
0.0
 11
-169.99999999999989
 21
537.06362999999999
 31
0.0
  0
TEXT
  5
2F
  8
HIBINO-BASE
 62
     7
 10
-148.44799999999989
 20
-262.1624033999999
 30
0.0
 40
10.800132539062499
  1
Hibino Corporation
 41
0.7
 11
-148.44799999999989
 21
-251.3622708609374
 31
0.0
 73
     3
  0
LINE
  5
30
  8
HIBINO-BASE
  6
CONTINUOUS
 62
     7
 10
370.0
 20
537.06362999999999
 30
0.0
 11
370.0
 21
-242.93637000000001
 31
0.0
  0
LINE
  5
31
  8
HIBINO-BASE
  6
CONTINUOUS
 62
     7
 10
100.0
 20
-175.4363699999999
 30
0.0
 11
370.0
 21
-175.4363699999999
 31
0.0
  0
LINE
  5
32
  8
HIBINO-BASE
  6
CONTINUOUS
 62
     7
 10
100.0
 20
-242.93637000000001
 30
0.0
 11
100.0
 21
-175.4363699999999
 31
0.0
  0
TEXT
  5
33
  8
HIBINO-BASE
 62
     7
 10
102.7
 20
-182.96244999999999
 30
0.0
 40
4.8865234374999993
  1
NOTE
 41
0.7
 11
102.7
 21
-178.0759265625
 31
0.0
 73
     3
  0
LINE
  5
34
  8
HIBINO-BASE
  6
CONTINUOUS
 62
     7
 10
205.0
 20
-242.93637000000001
 30
0.0
 11
205.0
 21
-175.4363699999999
 31
0.0
  0
TEXT
  5
35
  8
HIBINO-BASE
 62
     7
 10
207.69999999999999
 20
-182.96244999999999
 30
0.0
 40
4.8865234374999993
  1
TITLE
 41
0.7
 11
207.69999999999999
 21
-178.0759265625
 31
0.0
 73
     3
  0
TEXT
  5
36
  8
HIBINO-BASE
 62
     7
 10
250.2051699999999
 20
-262.1624033999999
 30
0.0
 40
10.800132539062499
  1
ヒビノ株式会社
 41
0.7
 11
250.2051699999999
 21
-251.3622708609374
 31
0.0
 73
     3
  0
LINE
  5
37
  8
HIBINO-BASE
  6
CONTINUOUS
 62
     7
 10
100.0
 20
-212.9363699999999
 30
0.0
 11
370.0
 21
-212.9363699999999
 31
0.0
  0
TEXT
  5
38
  8
HIBINO-BASE
 62
     7
 10
245.19999999999999
 20
-220.29348999999999
 30
0.0
 40
4.8865234374999993
  1
DRAWN
 41
0.7
 11
245.19999999999999
 21
-215.4069665625
 31
0.0
 73
     3
  0
TEXT
  5
39
  8
HIBINO-BASE
 62
     7
 10
170.19999999999999
 20
-220.29348999999999
 30
0.0
 40
4.8865234374999993
  1
DATE
 41
0.7
 11
170.19999999999999
 21
-215.4069665625
 31
0.0
 73
     3
  0
TEXT
  5
3A
  8
HIBINO-BASE
 62
     7
 10
140.19999999999999
 20
-220.29348999999999
 30
0.0
 40
4.8865234374999993
  1
SCALE
 41
0.7
 11
140.19999999999999
 21
-215.4069665625
 31
0.0
 73
     3
  0
TEXT
  5
3B
  8
HIBINO-BASE
 62
     7
 10
207.69999999999999
 20
-220.29348999999999
 30
0.0
 40
4.8865234374999993
  1
DESIGN
 41
0.7
 11
207.69999999999999
 21
-215.4069665625
 31
0.0
 73
     3
  0
TEXT
  5
3C
  8
HIBINO-BASE
 62
     7
 10
320.19999999999999
 20
-220.29348999999999
 30
0.0
 40
4.8865234374999993
  1
DRAWING NO.
 41
0.7
 11
320.19999999999999
 21
-215.4069665625
 31
0.0
 73
     3
  0
TEXT
  5
3D
  8
HIBINO-BASE
 62
     7
 10
282.69999999999999
 20
-220.29348999999999
 30
0.0
 40
4.8865234374999993
  1
CHECK
 41
0.7
 11
282.69999999999999
 21
-215.4069665625
 31
0.0
 73
     3
  0
LINE
  5
3E
  8
HIBINO-BASE
  6
CONTINUOUS
 62
     7
 10
143.12499999999989
 20
-239.18637000000001
 30
0.0
 11
154.375
 21
-227.93637000000001
 31
0.0
  0
TEXT
  5
3F
  8
HIBINO-BASE
 62
     7
 10
141.24999999999989
 20
-231.26320000000001
 30
0.0
 40
4.8865234374999993
  1
1
 41
0.7
 11
141.24999999999989
 21
-226.37667656249999
 31
0.0
 73
     3
  0
LINE
  5
40
  8
HIBINO-BASE
  6
CONTINUOUS
 62
     7
 10
137.5
 20
-242.93637000000001
 30
0.0
 11
137.5
 21
-212.9363699999999
 31
0.0
  0
LINE
  5
41
  8
HIBINO-BASE
  6
CONTINUOUS
 62
     7
 10
167.5
 20
-242.93637000000001
 30
0.0
 11
167.5
 21
-212.9363699999999
 31
0.0
  0
LINE
  5
42
  8
HIBINO-BASE
  6
CONTINUOUS
 62
     7
 10
242.5
 20
-212.9363699999999
 30
0.0
 11
242.5
 21
-242.93637000000001
 31
0.0
  0
LINE
  5
43
  8
HIBINO-BASE
  6
CONTINUOUS
 62
     7
 10
317.5
 20
-212.9363699999999
 30
0.0
 11
317.5
 21
-242.93637000000001
 31
0.0
  0
LINE
  5
44
  8
HIBINO-BASE
  6
CONTINUOUS
 62
     7
 10
279.99999999999989
 20
-242.93637000000001
 30
0.0
 11
279.99999999999989
 21
-212.9363699999999
 31
0.0
  0
TEXT
  5
45
  8
HIBINO-BASE
 62
     7
 10
170.06961999999999
 20
-234.34542999999999
 30
0.0
 40
4.8865234374999993
  1
'14.07.
 41
0.7
 11
170.06961999999999
 21
-229.4589065625
 31
0.0
 73
     3
  0
TEXT
  5
46
  8
HIBINO-BASE
 62
     7
 10
152.5
 20
-236.88820000000001
 30
0.0
 40
4.8865234374999993
  1
3
 41
0.7
 11
152.5
 21
-232.00167656249999
 31
0.0
 73
     3
  0
TEXT
  5
47
  8
HIBINO-BASE
 62
     7
 10
247.01743003310389
 20
-234.34542999999999
 30
0.0
 40
4.8865234374999993
  1
ootake
 41
0.7
 11
247.01743003310389
 21
-229.4589065625
 31
0.0
 73
     3
  0
TEXT
  5
48
  8
HIBINO-BASE
 62
     7
 10
111.65000000000001
 20
-237.00837000000001
 30
0.0
 40
9.7730468749999986
  1
A4
 41
0.7
 11
111.65000000000001
 21
-227.23532312500001
 31
0.0
 73
     3
  0
TEXT
  5
49
  8
HIBINO-BASE
 62
     7
 10
102.875
 20
-220.794735
 30
0.0
 40
4.8865234374999993
  1
PAPER SIZE
 41
0.7
 11
102.875
 21
-215.90821156249999
 31
0.0
 73
     3
  0
LINE
  5
4A
  8
SPEC
  6
CONTINUOUS
 62
     7
 10
-147.49999999999989
 20
507.06362999999988
 30
0.0
 11
295.0
 21
507.06362999999988
 31
0.0
  0
LINE
  5
4B
  8
SPEC
  6
CONTINUOUS
 62
     7
 10
-147.49999999999989
 20
450.81362999999988
 30
0.0
 11
295.0
 21
450.81362999999988
 31
0.0
  0
LINE
  5
4C
  8
SPEC
  6
CONTINUOUS
 62
     7
 10
-147.49999999999989
 20
462.06362999999988
 30
0.0
 11
295.0
 21
462.06362999999988
 31
0.0
  0
LINE
  5
4D
  8
SPEC
  6
CONTINUOUS
 62
     7
 10
-147.49999999999989
 20
439.56362999999988
 30
0.0
 11
295.0
 21
439.56362999999988
 31
0.0
  0
LINE
  5
4E
  8
SPEC
  6
CONTINUOUS
 62
     7
 10
-147.49999999999989
 20
428.31362999999988
 30
0.0
 11
295.0
 21
428.31362999999988
 31
0.0
  0
LINE
  5
4F
  8
SPEC
  6
CONTINUOUS
 62
     7
 10
-147.49999999999989
 20
484.56362999999988
 30
0.0
 11
295.0
 21
484.56362999999988
 31
0.0
  0
LINE
  5
50
  8
SPEC
  6
CONTINUOUS
 62
     7
 10
-147.49999999999989
 20
507.06362999999988
 30
0.0
 11
-147.49999999999989
 21
428.31362999999988
 31
0.0
  0
TEXT
  5
51
  8
SPEC
 62
     7
 10
-143.74999999999989
 20
511.24343999999979
 30
0.0
 40
7.3297851562499989
  1
仕様
 41
0.7
 11
-143.74999999999989
 21
518.57322515624992
 31
0.0
 73
     3
  0
LINE
  5
52
  8
SPEC
  6
CONTINUOUS
 62
     7
 10
-50.0
 20
507.06362999999988
 30
0.0
 11
-50.0
 21
428.31362999999988
 31
0.0
  0
LINE
  5
53
  8
SPEC
  6
CONTINUOUS
 62
     7
 10
295.0
 20
507.06362999999988
 30
0.0
 11
295.0
 21
428.31362999999988
 31
0.0
  0
TEXT
  5
54
  8
SPEC
 62
     7
 10
-145.00777590359289
 20
442.2178225569715
 30
0.0
 40
5.7009440104166647
  1
質量
 41
0.7
 11
-145.00777590359289
 21
447.9187665673881
 31
0.0
 73
     3
  0
TEXT
  5
55
  8
SPEC
 62
     7
 10
-47.329523203885422
 20
442.40855202142268
 30
0.0
 40
5.7009440104166647
  1
640g
 41
0.7
 11
-47.329523203885422
 21
448.1094960318394
 31
0.0
 73
     3
  0
TEXT
  5
56
  8
SPEC
 62
     7
 10
-145.13282134938601
 20
453.76496255745047
 30
0.0
 40
5.7009440104166647
  1
寸法(W\U+00D7H\U+00D7D)
 41
0.7
 11
-145.13282134938601
 21
459.46590656786719
 31
0.0
 73
     3
  0
TEXT
  5
57
  8
SPEC
 62
     7
 10
-47.66800169048981
 20
453.64964562592218
 30
0.0
 40
5.7009440104166647
  1
109\U+00D748\U+00D7146mm(除突起物)
 41
0.7
 11
-47.66800169048981
 21
459.3505896363389
 31
0.0
 73
     3
  0
TEXT
  5
58
  8
SPEC
 62
     7
 10
-144.93877788016621
 20
498.48216577307687
 30
0.0
 40
5.7009440104166647
  1
電源
 41
0.7
 11
-144.93877788016621
 21
504.18310978349359
 31
0.0
 73
     3
  0
TEXT
  5
59
  8
SPEC
 62
     7
 10
-47.343887818458207
 20
498.1240844110859
 30
0.0
 40
5.7009440104166647
  1
単3形アルカリ乾電池\U+00D71または単3形リチウム乾電池\U+00D71または単3形ニッケル水素充電池\U+00D71
 41
0.7
 11
-47.343887818458207
 21
503.82502842150262
 31
0.0
 73
     3
  0
TEXT
  5
5A
  8
SPEC
 62
     7
 10
-48.886114459025507
 20
487.37426605761448
 30
0.0
 40
5.7009440104166647
  1
＊電池寿命は使用環境により異なる。
 41
0.7
 11
-48.886114459025507
 21
493.0752100680312
 31
0.0
 73
     3
  0
TEXT
  5
5B
  8
SPEC
 62
     7
 10
-145.438959678245
 20
476.23225667211642
 30
0.0
 40
5.7009440104166647
  1
コネクター
 41
0.7
 11
-145.438959678245
 21
481.93320068253303
 31
0.0
 73
     3
  0
TEXT
  5
5C
  8
SPEC
 62
     7
 10
-47.65211177849546
 20
476.18226298578099
 30
0.0
 40
5.7009440104166647
  1
ボディーパック型送信機用出力：ミニXLR3ピン(メス）
 41
0.7
 11
-47.65211177849546
 21
481.88320699619771
 31
0.0
 73
     3
  0
TEXT
  5
5D
  8
SPEC
 62
     7
 10
-47.151924775511418
 20
464.59880666989841
 30
0.0
 40
5.7009440104166647
  1
CBL410 PCC用入力：3.5mmステレオ・ミニジャック
 41
0.7
 11
-47.151924775511418
 21
470.29975068031501
 31
0.0
 73
     3
  0
TEXT
  5
5E
  8
SPEC
 62
     7
 10
-145.0875099126734
 20
431.44031832515788
 30
0.0
 40
5.7009440104166647
  1
付属品
 41
0.7
 11
-145.0875099126734
 21
437.14126233557448
 31
0.0
 73
     3
  0
TEXT
  5
5F
  8
SPEC
 62
     7
 10
-47.395359458462408
 20
431.36706713491418
 30
0.0
 40
5.7009440104166647
  1
単3形アルカリ乾電池、和文クイックッスタ ートガイド
 41
0.7
 11
-47.395359458462408
 21
437.06801114533079
 31
0.0
 73
     3
  0
TEXT
  5
60
  8
DIMNSIONS
 62
     7
 10
40.0
 20
-206.12790000000001
 30
0.0
 40
7.3297851562499989
  1
(単位：mm)
 41
0.7
 11
40.0
 21
-198.79811484375
 31
0.0
 73
     3
  0
LINE
  5
61
  8
DIMNSIONS
  6
CONTINUOUS
 62
     7
 10
-54.505379040781477
 20
-106.0
 30
0.0
 11
-54.505379040781477
 21
-146.0
 31
0.0
  0
LINE
  5
62
  8
DIMNSIONS
  6
CONTINUOUS
 62
     7
 10
54.494620959218523
 20
-106.0
 30
0.0
 11
54.494620959218523
 21
-146.0
 31
0.0
  0
LINE
  5
63
  8
DIMNSIONS
  6
CONTINUOUS
 62
     7
 10
-54.505379040781477
 20
-140.0
 30
0.0
 11
54.494620959218523
 21
-140.0
 31
0.0
  0
LINE
  5
64
  8
DIMNSIONS
  6
CONTINUOUS
 62
     7
 10
-54.505379040781477
 20
-140.0
 30
0.0
 11
-47.003511365000222
 21
-137.98988061454921
 31
0.0
  0
LINE
  5
65
  8
DIMNSIONS
  6
CONTINUOUS
 62
     7
 10
-54.505379040781477
 20
-140.0
 30
0.0
 11
-47.003511365000222
 21
-142.01011938545071
 31
0.0
  0
LINE
  5
66
  8
DIMNSIONS
  6
CONTINUOUS
 62
     7
 10
54.494620959218523
 20
-140.0
 30
0.0
 11
46.992753283437281
 21
-142.01011938545071
 31
0.0
  0
LINE
  5
67
  8
DIMNSIONS
  6
CONTINUOUS
 62
     7
 10
54.494620959218523
 20
-140.0
 30
0.0
 11
46.992753283437281
 21
-137.98988061454921
 31
0.0
  0
TEXT
  5
68
  8
DIMNSIONS
 62
     7
 10
-7.9428810593921071
 20
-137.01833298007639
 30
0.0
 40
8.1442076708969022
  1
109
 41
0.7
 11
-7.9428810593921071
 21
-128.8741253091795
 31
0.0
 73
     3
  0
LINE
  5
69
  8
DIMNSIONS
  6
CONTINUOUS
 62
     7
 10
-6.1304295319780087
 20
0.0
 30
0.0
 11
-96.0
 21
0.0
 31
0.0
  0
LINE
  5
6A
  8
DIMNSIONS
  6
CONTINUOUS
 62
     7
 10
-6.005379040781448
 20
145.99999999068621
 30
0.0
 11
-96.0
 21
145.99999999068621
 31
0.0
  0
LINE
  5
6B
  8
DIMNSIONS
  6
CONTINUOUS
 62
     7
 10
-90.000000000000014
 20
0.0
 30
0.0
 11
-90.000000000000014
 21
145.99999999068621
 31
0.0
  0
LINE
  5
6C
  8
DIMNSIONS
  6
CONTINUOUS
 62
     7
 10
-90.000000000000014
 20
0.0
 30
0.0
 11
-92.010119385450764
 21
7.5018676757812539
 31
0.0
  0
LINE
  5
6D
  8
DIMNSIONS
  6
CONTINUOUS
 62
     7
 10
-90.000000000000014
 20
0.0
 30
0.0
 11
-87.989880614549264
 21
7.5018676757812539
 31
0.0
  0
LINE
  5
6E
  8
DIMNSIONS
  6
CONTINUOUS
 62
     7
 10
-90.000000000000014
 20
145.99999999068621
 30
0.0
 11
-87.989880614549264
 21
138.49813231490501
 31
0.0
  0
LINE
  5
6F
  8
DIMNSIONS
  6
CONTINUOUS
 62
     7
 10
-90.000000000000014
 20
145.99999999068621
 30
0.0
 11
-92.010119385450764
 21
138.49813231490501
 31
0.0
  0
TEXT
  5
70
  8
DIMNSIONS
 62
     7
 10
-92.981667019923563
 20
65.062497976732502
 30
0.0
 40
8.1442076708969022
  1
146
 50
90.0
 41
0.7
 11
-101.1258746908205
 21
65.062497976732502
 31
0.0
 73
     3
  0
LINE
  5
71
  8
DIMNSIONS
  6
CONTINUOUS
 62
     7
 10
-60.50537904078147
 20
-100.0
 30
0.0
 11
-96.0
 21
-100.0
 31
0.0
  0
LINE
  5
72
  8
DIMNSIONS
  6
CONTINUOUS
 62
     7
 10
-6.005379040781647
 20
-52.0
 30
0.0
 11
-96.0
 21
-52.0
 31
0.0
  0
LINE
  5
73
  8
DIMNSIONS
  6
CONTINUOUS
 62
     7
 10
-90.000000000000014
 20
-100.0
 30
0.0
 11
-90.000000000000014
 21
-52.0
 31
0.0
  0
LINE
  5
74
  8
DIMNSIONS
  6
CONTINUOUS
 62
     7
 10
-90.000000000000014
 20
-100.0
 30
0.0
 11
-92.010119385450764
 21
-92.49813232421873
 31
0.0
  0
LINE
  5
75
  8
DIMNSIONS
  6
CONTINUOUS
 62
     7
 10
-90.000000000000014
 20
-100.0
 30
0.0
 11
-87.989880614549264
 21
-92.49813232421873
 31
0.0
  0
LINE
  5
76
  8
DIMNSIONS
  6
CONTINUOUS
 62
     7
 10
-90.000000000000014
 20
-52.0
 30
0.0
 11
-87.989880614549264
 21
-59.501867675781263
 31
0.0
  0
LINE
  5
77
  8
DIMNSIONS
  6
CONTINUOUS
 62
     7
 10
-90.000000000000014
 20
-52.0
 30
0.0
 11
-92.010119385450764
 21
-59.501867675781263
 31
0.0
  0
TEXT
  5
78
  8
DIMNSIONS
 62
     7
 10
-92.981667108237815
 20
-86.583336361249266
 30
0.0
 40
8.1442081563294657
  1
48.0
 50
90.0
 41
0.7
 11
-101.1258752645673
 21
-86.583336361249266
 31
0.0
 73
     3
  0
LINE
  5
79
  8
DIMNSIONS
  6
CONTINUOUS
 62
     7
 10
-50.805379040781482
 20
-102.5
 30
0.0
 11
-96.0
 21
-102.5
 31
0.0
  0
LINE
  5
7A
  8
DIMNSIONS
  6
CONTINUOUS
 62
     7
 10
-60.50537904078147
 20
-100.0
 30
0.0
 11
-96.0
 21
-100.0
 31
0.0
  0
LINE
  5
7B
  8
DIMNSIONS
  6
CONTINUOUS
 62
     7
 10
-90.000000000000014
 20
-100.0
 30
0.0
 11
-90.000000000000014
 21
-102.5
 31
0.0
  0
LINE
  5
7C
  8
DIMNSIONS
  6
CONTINUOUS
 62
     7
 10
-90.000000000000014
 20
-102.5
 30
0.0
 11
-90.000000000000014
 21
-129.18750302791591
 31
0.0
  0
LINE
  5
7D
  8
DIMNSIONS
  6
CONTINUOUS
 62
     7
 10
-90.000000000000014
 20
-102.5
 30
0.0
 11
-87.989880614549264
 21
-110.0018676757812
 31
0.0
  0
LINE
  5
7E
  8
DIMNSIONS
  6
CONTINUOUS
 62
     7
 10
-90.000000000000014
 20
-102.5
 30
0.0
 11
-92.010119385450764
 21
-110.0018676757812
 31
0.0
  0
LINE
  5
7F
  8
DIMNSIONS
  6
CONTINUOUS
 62
     7
 10
-90.000000000000014
 20
-100.0
 30
0.0
 11
-90.000000000000014
 21
-85.0
 31
0.0
  0
LINE
  5
80
  8
DIMNSIONS
  6
CONTINUOUS
 62
     7
 10
-90.000000000000014
 20
-100.0
 30
0.0
 11
-92.010119385450764
 21
-92.49813232421873
 31
0.0
  0
LINE
  5
81
  8
DIMNSIONS
  6
CONTINUOUS
 62
     7
 10
-90.000000000000014
 20
-100.0
 30
0.0
 11
-87.989880614549264
 21
-92.49813232421873
 31
0.0
  0
TEXT
  5
82
  8
DIMNSIONS
 62
     7
 10
-92.981667240709214
 20
-129.18750302791591
 30
0.0
 40
8.1442088844783633
  1
2.5
 50
90.0
 41
0.7
 11
-101.1258761251875
 21
-129.18750302791591
 31
0.0
 73
     3
  0
LINE
  5
83
  8
DIMNSIONS
  6
CONTINUOUS
 62
     7
 10
-6.005379040781647
 20
-52.0
 30
0.0
 11
-96.0
 21
-52.0
 31
0.0
  0
LINE
  5
84
  8
DIMNSIONS
  6
CONTINUOUS
 62
     7
 10
-14.49999999999998
 20
-47.0
 30
0.0
 11
-96.0
 21
-47.0
 31
0.0
  0
LINE
  5
85
  8
DIMNSIONS
  6
CONTINUOUS
 62
     7
 10
-90.000000000000014
 20
-47.0
 30
0.0
 11
-90.000000000000014
 21
-52.0
 31
0.0
  0
LINE
  5
86
  8
DIMNSIONS
  6
CONTINUOUS
 62
     7
 10
-90.000000000000014
 20
-52.0
 30
0.0
 11
-90.000000000000014
 21
-67.0
 31
0.0
  0
LINE
  5
87
  8
DIMNSIONS
  6
CONTINUOUS
 62
     7
 10
-90.000000000000014
 20
-52.0
 30
0.0
 11
-87.989880614549264
 21
-59.501867675781263
 31
0.0
  0
LINE
  5
88
  8
DIMNSIONS
  6
CONTINUOUS
 62
     7
 10
-90.000000000000014
 20
-52.0
 30
0.0
 11
-92.010119385450764
 21
-59.501867675781263
 31
0.0
  0
LINE
  5
89
  8
DIMNSIONS
  6
CONTINUOUS
 62
     7
 10
-90.000000000000014
 20
-47.0
 30
0.0
 11
-90.000000000000014
 21
-24.125
 31
0.0
  0
LINE
  5
8A
  8
DIMNSIONS
  6
CONTINUOUS
 62
     7
 10
-90.000000000000014
 20
-47.0
 30
0.0
 11
-92.010119385450764
 21
-39.498132324218737
 31
0.0
  0
LINE
  5
8B
  8
DIMNSIONS
  6
CONTINUOUS
 62
     7
 10
-90.000000000000014
 20
-47.0
 30
0.0
 11
-87.989880614549264
 21
-39.498132324218737
 31
0.0
  0
TEXT
  5
8C
  8
DIMNSIONS
 62
     7
 10
-92.981666666666655
 20
-40.0
 30
0.0
 40
8.1442057291666661
  1
5.0
 50
90.0
 41
0.7
 11
-101.1258723958333
 21
-40.0
 31
0.0
 73
     3
  0
TEXT
  5
8D
  8
DATA
 62
     7
 10
250.0
 20
-209.5437
 30
0.0
 40
7.3297851562499989
  1
STS DAM+ WL
 41
0.7
 11
250.0
 21
-202.21391484374999
 31
0.0
 73
     3
  0
TEXT
  5
8E
  8
DATA
 62
     7
 10
250.0
 20
-187.7937
 30
0.0
 40
7.3297851562499989
  1
AKG
 41
0.7
 11
250.0
 21
-180.46391484374999
 31
0.0
 73
     3
  0
LINE
  5
8F
  8
DATA
  6
CONTINUOUS
 62
     7
 10
-0.0053790407814489
 20
0.0
 30
0.0
 11
-0.1304295319780096
 21
0.0
 31
0.0
  0
LINE
  5
90
  8
DATA
  6
CONTINUOUS
 62
     7
 10
-54.505379040781477
 20
-100.0
 30
0.0
 11
-54.505379040781477
 21
-80.18915384042964
 31
0.0
  0
LINE
  5
91
  8
DATA
  6
CONTINUOUS
 62
     7
 10
54.494620959218523
 20
-100.0
 30
0.0
 11
-54.505379040781477
 21
-100.0
 31
0.0
  0
LINE
  5
92
  8
DATA
  6
CONTINUOUS
 62
     7
 10
54.494620959218523
 20
-80.189153840429583
 30
0.0
 11
54.494620959218523
 21
-100.0
 31
0.0
  0
LINE
  5
93
  8
DATA
  6
CONTINUOUS
 62
     7
 10
100.0
 20
144.2194771869973
 30
0.0
 11
100.0
 21
0.0
 31
0.0
  0
ARC
  5
94
  8
DATA
  6
CONTINUOUS
 62
     7
 10
-0.1304295319780096
 20
302.13870505744671
 30
0.0
 40
302.13873093566821
 50
265.69761942693373
 51
274.3104720903446
  0
ARC
  5
95
  8
DATA
  6
CONTINUOUS
 62
     7
 10
-20.921421093517001
 20
25.780946247381522
 30
0.0
 40
24.999999999997399
 50
184.4148132487268
 51
265.69761942694009
  0
ARC
  5
96
  8
DATA
  6
CONTINUOUS
 62
     7
 10
-39.505647093252421
 20
126.9347329194924
 30
0.0
 40
14.99999999999908
 50
101.9763204658003
 51
184.41481324872689
  0
LINE
  5
97
  8
DATA
  6
CONTINUOUS
 62
     7
 10
-54.461140352793649
 20
125.78008086636621
 30
0.0
 11
-45.847243192751343
 21
23.856526158837859
 31
0.0
  0
ARC
  5
98
  8
DATA
  6
CONTINUOUS
 62
     7
 10
20.910663011954089
 20
25.780946247381522
 30
0.0
 40
24.99999999999741
 50
274.30238057305991
 51
355.58518675127328
  0
ARC
  5
99
  8
DATA
  6
CONTINUOUS
 62
     7
 10
39.494889011689523
 20
126.9347329194924
 30
0.0
 40
14.999999999999069
 50
355.58518675127328
 51
78.023679534199687
  0
LINE
  5
9A
  8
DATA
  6
CONTINUOUS
 62
     7
 10
54.450382271230772
 20
125.78008086636621
 30
0.0
 11
45.836485111188452
 21
23.856526158837859
 31
0.0
  0
ARC
  5
9B
  8
DATA
  6
CONTINUOUS
 62
     7
 10
-0.0053790407814631
 20
-62.930227077367419
 30
0.0
 40
208.93022706805371
 50
78.231523188015544
 51
101.7684768119844
  0
LINE
  5
9C
  8
DATA
  6
CONTINUOUS
 62
     7
 10
-38.703469839779402
 20
25.258568030864812
 30
0.0
 11
-45.994014867806371
 21
108.6710248633661
 31
0.0
  0
LINE
  5
9D
  8
DATA
  6
CONTINUOUS
 62
     7
 10
38.692711758215822
 20
25.258568030864659
 30
0.0
 11
45.983256786243381
 21
108.6710248633662
 31
0.0
  0
LINE
  5
9E
  8
DATA
  6
CONTINUOUS
 62
     7
 10
-13.28931639747732
 20
7.0
 30
0.0
 11
13.422824189494079
 21
7.0
 31
0.0
  0
ARC
  5
9F
  8
DATA
  6
CONTINUOUS
 62
     7
 10
-18.779428716129971
 20
27.0
 30
0.0
 40
20.0
 50
184.99516048926961
 51
270.0
  0
ARC
  5
A0
  8
DATA
  6
CONTINUOUS
 62
     7
 10
18.768670634566369
 20
27.0
 30
0.0
 40
20.0
 50
270.0
 51
355.00483951072988
  0
LINE
  5
A1
  8
DATA
  6
CONTINUOUS
 62
     7
 10
-9.5799647925364866
 20
20.98602514396179
 30
0.0
 11
-17.210805871042389
 21
7.5198350054224354
 31
0.0
  0
LINE
  5
A2
  8
DATA
  6
CONTINUOUS
 62
     7
 10
9.5719712284081435
 20
21.0
 30
0.0
 11
17.361753920369829
 21
7.5077005976017688
 31
0.0
  0
LINE
  5
A3
  8
DATA
  6
CONTINUOUS
 62
     7
 10
-7.8399204208392756
 20
22.0
 30
0.0
 11
7.8399204208392756
 21
22.0
 31
0.0
  0
LINE
  5
A4
  8
DATA
  6
CONTINUOUS
 62
     7
 10
-7.0399204208393371
 20
19.0
 30
0.0
 11
7.0719712284081728
 21
19.0
 31
0.0
  0
LINE
  5
A5
  8
DATA
  6
CONTINUOUS
 62
     7
 10
-8.7799647925365463
 20
17.986025143961779
 30
0.0
 11
-14.159338583325921
 21
8.4930125719808984
 31
0.0
  0
LINE
  5
A6
  8
DATA
  6
CONTINUOUS
 62
     7
 10
8.8040220359770416
 20
18.0
 30
0.0
 11
14.28884959327851
 21
8.5
 31
0.0
  0
ARC
  5
A7
  8
DATA
  6
CONTINUOUS
 62
     7
 10
-7.8399204208392623
 20
20.000000000000011
 30
0.0
 40
1.9999999999999849
 50
90.000000000000441
 51
150.4612177404417
  0
ARC
  5
A8
  8
DATA
  6
CONTINUOUS
 62
     7
 10
7.8399204208392623
 20
20.0
 30
0.0
 40
2.0000000000000031
 50
29.999999999999929
 51
89.999999999999574
  0
ARC
  5
A9
  8
DATA
  6
CONTINUOUS
 62
     7
 10
-7.039920420839322
 20
17.000000000000021
 30
0.0
 40
1.9999999999999849
 50
90.000000000000441
 51
150.4612177404417
  0
ARC
  5
AA
  8
DATA
  6
CONTINUOUS
 62
     7
 10
7.0719712284081604
 20
17.0
 30
0.0
 40
2.0000000000000031
 50
29.999999999999929
 51
89.999999999999574
  0
ARC
  5
AB
  8
DATA
  6
CONTINUOUS
 62
     7
 10
-13.28931639747732
 20
8.0
 30
0.0
 40
0.999999999999996
 50
150.46121774044059
 51
270.0
  0
ARC
  5
AC
  8
DATA
  6
CONTINUOUS
 62
     7
 10
13.422824189494079
 20
8.0
 30
0.0
 40
1.0
 50
270.0
 51
30.00000000000011
  0
ARC
  5
AD
  8
DATA
  6
CONTINUOUS
 62
     7
 10
-18.080828056890599
 20
8.0128475774031074
 30
0.0
 40
0.9999999999995395
 50
272.10715229894572
 51
330.46121774044059
  0
ARC
  5
AE
  8
DATA
  6
CONTINUOUS
 62
     7
 10
18.22777932415352
 20
8.0077005976013425
 30
0.0
 40
0.9999999999991182
 50
210.00000000000099
 51
268.36868543474071
  0
LINE
  5
AF
  8
DATA
  6
CONTINUOUS
 62
     7
 10
-18.779428716129971
 20
7.0
 30
0.0
 11
-18.044059601141591
 21
7.0135237656879488
 31
0.0
  0
LINE
  5
B0
  8
DATA
  6
CONTINUOUS
 62
     7
 10
18.199311360448391
 20
7.0081058922128241
 30
0.0
 11
18.768670634566369
 21
7.0
 31
0.0
  0
CIRCLE
  5
B1
  8
DATA
  6
CONTINUOUS
 62
     7
 10
0.0667538960083789
 20
10.205007239000681
 30
0.0
 40
1.400000000000005
  0
ARC
  5
B2
  8
DATA
  6
CONTINUOUS
 62
     7
 10
-0.0053790407814773
 20
9.5712789410248984
 30
0.0
 40
2.7493348775212141
 50
27.8530740564022
 51
152.14692594359781
  0
ARC
  5
B3
  8
DATA
  6
CONTINUOUS
 62
     7
 10
0.0045327748550648
 20
9.5862323346803464
 30
0.0
 40
3.6592761931780751
 50
35.770120489763649
 51
144.51335563089751
  0
ARC
  5
B4
  8
DATA
  6
CONTINUOUS
 62
     7
 10
0.0032301314210486
 20
8.7110917085448438
 30
0.0
 40
5.4328533758145321
 50
48.179650331049032
 51
131.9761730444167
  0
ARC
  5
B5
  8
DATA
  6
CONTINUOUS
 62
     7
 10
-0.0053790407814631
 20
12.285818737608601
 30
0.0
 40
113.7141812530776
 50
69.673804933077065
 51
110.32619506692281
  0
ARC
  5
B6
  8
DATA
  6
CONTINUOUS
 62
     7
 10
-36.031994305982401
 20
109.5417408479335
 30
0.0
 40
9.9999999999992291
 50
110.3261950669182
 51
184.99516048926961
  0
ARC
  5
B7
  8
DATA
  6
CONTINUOUS
 62
     7
 10
36.02123622441971
 20
109.5417408479337
 30
0.0
 40
9.9999999999989608
 50
355.00483951072988
 51
69.673804933083318
  0
LINE
  5
B8
  8
DATA
  6
CONTINUOUS
 62
     7
 10
-30.78012713044815
 20
128.62966079303561
 30
0.0
 11
-30.56936387853462
 21
126.8183262773078
 31
0.0
  0
LINE
  5
B9
  8
DATA
  6
CONTINUOUS
 62
     7
 10
30.769369048885121
 20
128.62966079303391
 30
0.0
 11
30.558605796971719
 21
126.81832627730731
 31
0.0
  0
ARC
  5
BA
  8
DATA
  6
CONTINUOUS
 62
     7
 10
-0.0053790407814631
 20
14.919626570616231
 30
0.0
 40
113.7141812530776
 50
75.701993052186893
 51
104.29800694781279
  0
ARC
  5
BB
  8
DATA
  6
CONTINUOUS
 62
     7
 10
-0.0053790407814631
 20
20.919626570616231
 30
0.0
 40
113.7141812530776
 50
75.066682930473092
 51
104.9333170695277
  0
TEXT
  5
BC
  8
DATA
 62
     7
 10
-7.9716286648473007
 20
35.353428617265678
 30
0.0
 40
8.1442057291666661
  1
AKG
 41
0.7
 11
-7.9716286648472998
 21
43.497634346432342
 31
0.0
 73
     3
  0
TEXT
  5
BD
  8
DATA
 62
     7
 10
-9.9623755160942409
 20
29.1687311988175
 30
0.0
 40
3.2576822916666659
  1
STSDAM+WL
 41
0.7
 11
-9.9623755160942409
 21
32.426413490484173
 31
0.0
 73
     3
  0
ARC
  5
BE
  8
DATA
  6
CONTINUOUS
 62
     7
 10
-28.793530364272851
 20
128.86081720895129
 30
0.0
 40
1.9999999999992859
 50
104.93331706950759
 51
186.6369763117774
  0
ARC
  5
BF
  8
DATA
  6
CONTINUOUS
 62
     7
 10
-28.582767112358411
 20
127.0494826932236
 30
0.0
 40
2.000000000000199
 50
186.6369763117774
 51
284.29800694780693
  0
ARC
  5
C0
  8
DATA
  6
CONTINUOUS
 62
     7
 10
28.78277228270791
 20
128.86081720894981
 30
0.0
 40
2.000000000001215
 50
353.36302368822282
 51
75.066682930438091
  0
ARC
  5
C1
  8
DATA
  6
CONTINUOUS
 62
     7
 10
28.572009030795911
 20
127.0494826932231
 30
0.0
 40
1.9999999999997939
 50
255.70199305218131
 51
353.36302368822271
  0
ARC
  5
C2
  8
DATA
  6
CONTINUOUS
 62
     7
 10
-0.0053790407814631
 20
17.248793413358101
 30
0.0
 40
113.7141812530776
 50
75.952819884260435
 51
100.144491043759
  0
ARC
  5
C3
  8
DATA
  6
CONTINUOUS
 62
     7
 10
-0.0053790407814631
 20
18.348949656755281
 30
0.0
 40
113.7141812530777
 50
75.817531683635295
 51
100.2350565197949
  0
LINE
  5
C4
  8
DATA
  6
CONTINUOUS
 62
     7
 10
28.20129078444937
 20
127.924052512586
 30
0.0
 11
28.21782323592053
 21
127.98892133125381
 31
0.0
  0
ARC
  5
C5
  8
DATA
  6
CONTINUOUS
 62
     7
 10
27.716778623069111
 20
128.04753516511011
 30
0.0
 40
0.499999999999764
 50
255.95281988423341
 51
345.70199305218642
  0
ARC
  5
C6
  8
DATA
  6
CONTINUOUS
 62
     7
 10
27.733311067319971
 20
128.1124039856181
 30
0.0
 40
0.5000000074508569
 50
345.7019930521862
 51
75.817531683602041
  0
ARC
  5
C7
  8
DATA
  6
CONTINUOUS
 62
     7
 10
-20.122054684062391
 20
129.6774310555345
 30
0.0
 40
0.5000000074505948
 50
180.0
 51
280.14449104375808
  0
ARC
  5
C8
  8
DATA
  6
CONTINUOUS
 62
     7
 10
-20.122054684062419
 20
129.76156203157001
 30
0.0
 40
0.5000000074505711
 50
100.235056519794
 51
180.0
  0
LINE
  5
C9
  8
DATA
  6
CONTINUOUS
 62
     7
 10
-20.21089812982915
 20
130.25360557597941
 30
0.0
 11
-20.211946493744161
 21
130.25341512956041
 31
0.0
  0
LINE
  5
CA
  8
DATA
  6
CONTINUOUS
 62
     7
 10
-24.045481019280629
 20
128.28942239510951
 30
0.0
 11
-27.18383364454203
 21
127.72788199810179
 31
0.0
  0
LINE
  5
CB
  8
DATA
  6
CONTINUOUS
 62
     7
 10
-20.622054691512989
 20
129.6774310555345
 30
0.0
 11
-20.622054691512989
 21
129.76156203157001
 31
0.0
  0
LINE
  5
CC
  8
DATA
  6
CONTINUOUS
 62
     7
 10
-27.405240674446389
 20
128.94667698498699
 30
0.0
 11
-27.18383364454203
 21
127.72788199810179
 31
0.0
  0
LINE
  5
CD
  8
DATA
  6
CONTINUOUS
 62
     7
 10
-27.405240674446389
 20
128.94667698498699
 30
0.0
 11
-24.266912868215819
 21
129.51678750063621
 31
0.0
  0
LINE
  5
CE
  8
DATA
  6
CONTINUOUS
 62
     7
 10
-24.26691286821584
 20
129.51678750063621
 30
0.0
 11
-24.045481019280611
 21
128.28942239510951
 31
0.0
  0
LINE
  5
CF
  8
DATA
  6
CONTINUOUS
 62
     7
 10
-24.186529531021641
 20
129.07123414590271
 30
0.0
 11
-23.844496629255008
 21
129.13286169577049
 31
0.0
  0
LINE
  5
D0
  8
DATA
  6
CONTINUOUS
 62
     7
 10
-24.126200194092451
 20
128.7368372497809
 30
0.0
 11
-23.778169374681092
 21
128.79867437464819
 31
0.0
  0
LINE
  5
D1
  8
DATA
  6
CONTINUOUS
 62
     7
 10
-23.844496629255008
 20
129.13286169577049
 30
0.0
 11
-23.77816937468112
 21
128.79867437464819
 31
0.0
  0
ARC
  5
D2
  8
DATA
  6
CONTINUOUS
 62
     7
 10
-0.0053790407814773
 20
123.306189150989
 30
0.0
 40
213.31228176542101
 50
262.27157665300763
 51
277.72842334699237
  0
ARC
  5
D3
  8
DATA
  6
CONTINUOUS
 62
     7
 10
-15.30524947757206
 20
-90.530383251247045
 30
0.0
 40
38.535052588895113
 50
118.4575660441523
 51
147.80708448645819
  0
LINE
  5
D4
  8
DATA
  6
CONTINUOUS
 62
     7
 10
-47.915886416856587
 20
-70.0
 30
0.0
 11
-50.928534642812608
 21
-72.524750920952059
 31
0.0
  0
ARC
  5
D5
  8
DATA
  6
CONTINUOUS
 62
     7
 10
15.294491396009089
 20
-90.530383251247045
 30
0.0
 40
38.535052588895141
 50
32.192915513541713
 51
61.542433955847379
  0
LINE
  5
D6
  8
DATA
  6
CONTINUOUS
 62
     7
 10
47.905128335293639
 20
-70.0
 30
0.0
 11
50.917776561249681
 21
-72.524750920952059
 31
0.0
  0
ARC
  5
D7
  8
DATA
  6
CONTINUOUS
 62
     7
 10
-44.505379040781477
 20
-80.18915384042964
 30
0.0
 40
10.0
 50
129.96470249700079
 51
180.0
  0
ARC
  5
D8
  8
DATA
  6
CONTINUOUS
 62
     7
 10
44.494620959218523
 20
-80.189153840429626
 30
0.0
 40
10.000000000000011
 50
359.99999999999977
 51
50.035297502999022
  0
LINE
  5
D9
  8
DATA
  6
CONTINUOUS
 62
     7
 10
-44.805379040781489
 20
-102.5
 30
0.0
 11
-44.805379040781489
 21
-100.4999999999999
 31
0.0
  0
LINE
  5
DA
  8
DATA
  6
CONTINUOUS
 62
     7
 10
-37.205379040781487
 20
-102.5
 30
0.0
 11
-44.805379040781489
 21
-102.5
 31
0.0
  0
LINE
  5
DB
  8
DATA
  6
CONTINUOUS
 62
     7
 10
-37.205379040781487
 20
-100.4999999999999
 30
0.0
 11
-37.205379040781487
 21
-102.5
 31
0.0
  0
LINE
  5
DC
  8
DATA
  6
CONTINUOUS
 62
     7
 10
-32.805379040781489
 20
-102.5
 30
0.0
 11
-32.805379040781489
 21
-100.4999999999999
 31
0.0
  0
LINE
  5
DD
  8
DATA
  6
CONTINUOUS
 62
     7
 10
-25.205379040781491
 20
-102.5
 30
0.0
 11
-32.805379040781489
 21
-102.5
 31
0.0
  0
LINE
  5
DE
  8
DATA
  6
CONTINUOUS
 62
     7
 10
-25.205379040781491
 20
-100.4999999999999
 30
0.0
 11
-25.205379040781491
 21
-102.5
 31
0.0
  0
LINE
  5
DF
  8
DATA
  6
CONTINUOUS
 62
     7
 10
-45.655379040781469
 20
-100.5
 30
0.0
 11
-45.655379040781469
 21
-100.0
 31
0.0
  0
LINE
  5
E0
  8
DATA
  6
CONTINUOUS
 62
     7
 10
-36.355379040781472
 20
-100.5
 30
0.0
 11
-45.655379040781469
 21
-100.5
 31
0.0
  0
LINE
  5
E1
  8
DATA
  6
CONTINUOUS
 62
     7
 10
-36.355379040781472
 20
-100.0
 30
0.0
 11
-36.355379040781472
 21
-100.5
 31
0.0
  0
LINE
  5
E2
  8
DATA
  6
CONTINUOUS
 62
     7
 10
-33.65537904078149
 20
-100.5
 30
0.0
 11
-33.65537904078149
 21
-100.0
 31
0.0
  0
LINE
  5
E3
  8
DATA
  6
CONTINUOUS
 62
     7
 10
-24.355379040781489
 20
-100.5
 30
0.0
 11
-33.65537904078149
 21
-100.5
 31
0.0
  0
LINE
  5
E4
  8
DATA
  6
CONTINUOUS
 62
     7
 10
-24.355379040781489
 20
-100.0
 30
0.0
 11
-24.355379040781489
 21
-100.5
 31
0.0
  0
LINE
  5
E5
  8
DATA
  6
CONTINUOUS
 62
     7
 10
44.794620959218527
 20
-102.5
 30
0.0
 11
44.794620959218527
 21
-100.4999999999999
 31
0.0
  0
LINE
  5
E6
  8
DATA
  6
CONTINUOUS
 62
     7
 10
37.19462095921854
 20
-102.5
 30
0.0
 11
44.794620959218527
 21
-102.5
 31
0.0
  0
LINE
  5
E7
  8
DATA
  6
CONTINUOUS
 62
     7
 10
37.19462095921854
 20
-100.4999999999999
 30
0.0
 11
37.19462095921854
 21
-102.5
 31
0.0
  0
LINE
  5
E8
  8
DATA
  6
CONTINUOUS
 62
     7
 10
32.794620959218541
 20
-102.5
 30
0.0
 11
32.794620959218541
 21
-100.4999999999999
 31
0.0
  0
LINE
  5
E9
  8
DATA
  6
CONTINUOUS
 62
     7
 10
25.19462095921854
 20
-102.5
 30
0.0
 11
32.794620959218541
 21
-102.5
 31
0.0
  0
LINE
  5
EA
  8
DATA
  6
CONTINUOUS
 62
     7
 10
25.19462095921854
 20
-100.4999999999999
 30
0.0
 11
25.19462095921854
 21
-102.5
 31
0.0
  0
LINE
  5
EB
  8
DATA
  6
CONTINUOUS
 62
     7
 10
45.644620959218528
 20
-100.5
 30
0.0
 11
45.644620959218528
 21
-100.0
 31
0.0
  0
LINE
  5
EC
  8
DATA
  6
CONTINUOUS
 62
     7
 10
36.344620959218531
 20
-100.5
 30
0.0
 11
45.644620959218528
 21
-100.5
 31
0.0
  0
LINE
  5
ED
  8
DATA
  6
CONTINUOUS
 62
     7
 10
36.344620959218531
 20
-100.0
 30
0.0
 11
36.344620959218531
 21
-100.5
 31
0.0
  0
LINE
  5
EE
  8
DATA
  6
CONTINUOUS
 62
     7
 10
33.644620959218528
 20
-100.5
 30
0.0
 11
33.644620959218528
 21
-100.0
 31
0.0
  0
LINE
  5
EF
  8
DATA
  6
CONTINUOUS
 62
     7
 10
24.344620959218549
 20
-100.5
 30
0.0
 11
33.644620959218528
 21
-100.5
 31
0.0
  0
LINE
  5
F0
  8
DATA
  6
CONTINUOUS
 62
     7
 10
24.344620959218549
 20
-100.0
 30
0.0
 11
24.344620959218549
 21
-100.5
 31
0.0
  0
ARC
  5
F1
  8
DATA
  6
CONTINUOUS
 62
     7
 10
1.1951903154990611
 20
-184.81732069532481
 30
0.0
 40
132.82274670953009
 50
90.517896938134939
 51
105.216989130404
  0
ARC
  5
F2
  8
DATA
  6
CONTINUOUS
 62
     7
 10
-1.205948397062016
 20
-184.81732069532481
 30
0.0
 40
132.82274670953009
 50
74.783010869595913
 51
89.482103061865061
  0
LINE
  5
F3
  8
DATA
  6
CONTINUOUS
 62
     7
 10
-54.505379040781477
 20
250.0
 30
0.0
 11
-54.505379040781477
 21
230.18915384042961
 31
0.0
  0
LINE
  5
F4
  8
DATA
  6
CONTINUOUS
 62
     7
 10
54.494620959218523
 20
250.0
 30
0.0
 11
-54.505379040781477
 21
250.0
 31
0.0
  0
LINE
  5
F5
  8
DATA
  6
CONTINUOUS
 62
     7
 10
54.494620959218523
 20
230.18915384042961
 30
0.0
 11
54.494620959218523
 21
250.0
 31
0.0
  0
ARC
  5
F6
  8
DATA
  6
CONTINUOUS
 62
     7
 10
-15.30524947757206
 20
240.530383251247
 30
0.0
 40
38.535052588895148
 50
213.2566106217264
 51
241.5424339558476
  0
LINE
  5
F7
  8
DATA
  6
CONTINUOUS
 62
     7
 10
-48.498679159635969
 20
220.48840966608029
 30
0.0
 11
-50.928534642812608
 21
222.5247509209521
 31
0.0
  0
ARC
  5
F8
  8
DATA
  6
CONTINUOUS
 62
     7
 10
15.294491396009089
 20
240.530383251247
 30
0.0
 40
38.535052588895148
 50
298.45756604415271
 51
326.74338937827349
  0
LINE
  5
F9
  8
DATA
  6
CONTINUOUS
 62
     7
 10
48.487921078073029
 20
220.48840966608029
 30
0.0
 11
50.917776561249681
 21
222.5247509209521
 31
0.0
  0
ARC
  5
FA
  8
DATA
  6
CONTINUOUS
 62
     7
 10
-44.505379040781477
 20
230.18915384042961
 30
0.0
 40
10.0
 50
180.0
 51
230.03529750299921
  0
ARC
  5
FB
  8
DATA
  6
CONTINUOUS
 62
     7
 10
44.494620959218523
 20
230.18915384042961
 30
0.0
 40
10.000000000000011
 50
309.96470249700093
 51
0.0
  0
LINE
  5
FC
  8
DATA
  6
CONTINUOUS
 62
     7
 10
-44.805379040781489
 20
252.5
 30
0.0
 11
-44.805379040781489
 21
250.5
 31
0.0
  0
LINE
  5
FD
  8
DATA
  6
CONTINUOUS
 62
     7
 10
-37.205379040781487
 20
252.5
 30
0.0
 11
-44.805379040781489
 21
252.5
 31
0.0
  0
LINE
  5
FE
  8
DATA
  6
CONTINUOUS
 62
     7
 10
-37.205379040781487
 20
250.5
 30
0.0
 11
-37.205379040781487
 21
252.5
 31
0.0
  0
LINE
  5
FF
  8
DATA
  6
CONTINUOUS
 62
     7
 10
-32.805379040781489
 20
252.5
 30
0.0
 11
-32.805379040781489
 21
250.5
 31
0.0
  0
LINE
  5
100
  8
DATA
  6
CONTINUOUS
 62
     7
 10
-25.205379040781491
 20
252.5
 30
0.0
 11
-32.805379040781489
 21
252.5
 31
0.0
  0
LINE
  5
101
  8
DATA
  6
CONTINUOUS
 62
     7
 10
-25.205379040781491
 20
250.5
 30
0.0
 11
-25.205379040781491
 21
252.5
 31
0.0
  0
LINE
  5
102
  8
DATA
  6
CONTINUOUS
 62
     7
 10
-45.655379040781469
 20
250.5
 30
0.0
 11
-45.655379040781469
 21
250.0
 31
0.0
  0
LINE
  5
103
  8
DATA
  6
CONTINUOUS
 62
     7
 10
-36.355379040781472
 20
250.5
 30
0.0
 11
-45.655379040781469
 21
250.5
 31
0.0
  0
LINE
  5
104
  8
DATA
  6
CONTINUOUS
 62
     7
 10
-36.355379040781472
 20
250.0
 30
0.0
 11
-36.355379040781472
 21
250.5
 31
0.0
  0
LINE
  5
105
  8
DATA
  6
CONTINUOUS
 62
     7
 10
-33.65537904078149
 20
250.5
 30
0.0
 11
-33.65537904078149
 21
250.0
 31
0.0
  0
LINE
  5
106
  8
DATA
  6
CONTINUOUS
 62
     7
 10
-24.355379040781489
 20
250.5
 30
0.0
 11
-33.65537904078149
 21
250.5
 31
0.0
  0
LINE
  5
107
  8
DATA
  6
CONTINUOUS
 62
     7
 10
-24.355379040781489
 20
250.0
 30
0.0
 11
-24.355379040781489
 21
250.5
 31
0.0
  0
LINE
  5
108
  8
DATA
  6
CONTINUOUS
 62
     7
 10
44.794620959218527
 20
252.5
 30
0.0
 11
44.794620959218527
 21
250.5
 31
0.0
  0
LINE
  5
109
  8
DATA
  6
CONTINUOUS
 62
     7
 10
37.19462095921854
 20
252.5
 30
0.0
 11
44.794620959218527
 21
252.5
 31
0.0
  0
LINE
  5
10A
  8
DATA
  6
CONTINUOUS
 62
     7
 10
37.19462095921854
 20
250.5
 30
0.0
 11
37.19462095921854
 21
252.5
 31
0.0
  0
LINE
  5
10B
  8
DATA
  6
CONTINUOUS
 62
     7
 10
32.794620959218541
 20
252.5
 30
0.0
 11
32.794620959218541
 21
250.5
 31
0.0
  0
LINE
  5
10C
  8
DATA
  6
CONTINUOUS
 62
     7
 10
25.19462095921854
 20
252.5
 30
0.0
 11
32.794620959218541
 21
252.5
 31
0.0
  0
LINE
  5
10D
  8
DATA
  6
CONTINUOUS
 62
     7
 10
25.19462095921854
 20
250.5
 30
0.0
 11
25.19462095921854
 21
252.5
 31
0.0
  0
LINE
  5
10E
  8
DATA
  6
CONTINUOUS
 62
     7
 10
45.644620959218528
 20
250.5
 30
0.0
 11
45.644620959218528
 21
250.0
 31
0.0
  0
LINE
  5
10F
  8
DATA
  6
CONTINUOUS
 62
     7
 10
36.344620959218531
 20
250.5
 30
0.0
 11
45.644620959218528
 21
250.5
 31
0.0
  0
LINE
  5
110
  8
DATA
  6
CONTINUOUS
 62
     7
 10
36.344620959218531
 20
250.0
 30
0.0
 11
36.344620959218531
 21
250.5
 31
0.0
  0
LINE
  5
111
  8
DATA
  6
CONTINUOUS
 62
     7
 10
33.644620959218528
 20
250.5
 30
0.0
 11
33.644620959218528
 21
250.0
 31
0.0
  0
LINE
  5
112
  8
DATA
  6
CONTINUOUS
 62
     7
 10
24.344620959218549
 20
250.5
 30
0.0
 11
33.644620959218528
 21
250.5
 31
0.0
  0
LINE
  5
113
  8
DATA
  6
CONTINUOUS
 62
     7
 10
24.344620959218549
 20
250.0
 30
0.0
 11
24.344620959218549
 21
250.5
 31
0.0
  0
ARC
  5
114
  8
DATA
  6
CONTINUOUS
 62
     7
 10
1.1951903154990611
 20
334.81732069532478
 30
0.0
 40
132.82274670953009
 50
254.7830108695959
 51
269.48210306186508
  0
ARC
  5
115
  8
DATA
  6
CONTINUOUS
 62
     7
 10
-1.205948397062016
 20
334.81732069532478
 30
0.0
 40
132.82274670953009
 50
270.51789693813492
 51
285.2169891304041
  0
LINE
  5
116
  8
DATA
  6
CONTINUOUS
 62
     7
 10
-52.005379040781477
 20
250.0
 30
0.0
 11
-52.005379040781477
 21
236.08614980554401
 31
0.0
  0
LINE
  5
117
  8
DATA
  6
CONTINUOUS
 62
     7
 10
51.994620959218523
 20
250.0
 30
0.0
 11
51.994620959218523
 21
236.08614980554401
 31
0.0
  0
LINE
  5
118
  8
DATA
  6
CONTINUOUS
 62
     7
 10
-52.700715201989361
 20
234.16559660655051
 30
0.0
 11
-54.505379040781477
 21
232.0
 31
0.0
  0
LINE
  5
119
  8
DATA
  6
CONTINUOUS
 62
     7
 10
52.689957120426399
 20
234.16559660655051
 30
0.0
 11
54.494620959218523
 21
232.0
 31
0.0
  0
ARC
  5
11A
  8
DATA
  6
CONTINUOUS
 62
     7
 10
-55.00537904078147
 20
236.08614980554401
 30
0.0
 40
3.0
 50
320.19442890773468
 51
0.0
  0
ARC
  5
11B
  8
DATA
  6
CONTINUOUS
 62
     7
 10
54.994620959218523
 20
236.08614980554401
 30
0.0
 40
3.0000000000000071
 50
179.99999999999969
 51
219.8055710922649
  0
LINE
  5
11C
  8
DATA
  6
CONTINUOUS
 62
     7
 10
-24.809940704227412
 20
209.89673976186401
 30
0.0
 11
24.809811495028288
 21
209.89673976186401
 31
0.0
  0
LINE
  5
11D
  8
DATA
  6
CONTINUOUS
 62
     7
 10
-38.868724629659212
 20
214.22427995326791
 30
0.0
 11
-50.302377853263252
 21
222.0
 31
0.0
  0
LINE
  5
11E
  8
DATA
  6
CONTINUOUS
 62
     7
 10
38.852532656100202
 20
214.2133652211275
 30
0.0
 11
50.16461450476065
 21
221.8935631907141
 31
0.0
  0
LINE
  5
11F
  8
DATA
  6
CONTINUOUS
 62
     7
 10
-52.184564307732153
 20
235.0648740142849
 30
0.0
 11
-29.005379040781481
 21
235.0648740142849
 31
0.0
  0
LINE
  5
120
  8
DATA
  6
CONTINUOUS
 62
     7
 10
-18.00537904078147
 20
235.0648740142849
 30
0.0
 11
52.173806226169177
 21
235.0648740142849
 31
0.0
  0
LINE
  5
121
  8
DATA
  6
CONTINUOUS
 62
     7
 10
-27.005379040781481
 20
250.0
 30
0.0
 11
-27.005379040781481
 21
234.0
 31
0.0
  0
LINE
  5
122
  8
DATA
  6
CONTINUOUS
 62
     7
 10
-20.005379040781481
 20
250.0
 30
0.0
 11
-20.005379040781481
 21
234.0
 31
0.0
  0
LINE
  5
123
  8
DATA
  6
CONTINUOUS
 62
     7
 10
-25.005379040781481
 20
232.0
 30
0.0
 11
-22.005379040781481
 21
232.0
 31
0.0
  0
ARC
  5
124
  8
DATA
  6
CONTINUOUS
 62
     7
 10
-25.005379040781481
 20
234.0
 30
0.0
 40
2.0
 50
180.0
 51
270.0
  0
ARC
  5
125
  8
DATA
  6
CONTINUOUS
 62
     7
 10
-22.005379040781481
 20
234.0
 30
0.0
 40
2.0
 50
270.0
 51
0.0
  0
LINE
  5
126
  8
DATA
  6
CONTINUOUS
 62
     7
 10
-29.005379040781481
 20
250.0
 30
0.0
 11
-29.005379040781481
 21
233.0
 31
0.0
  0
LINE
  5
127
  8
DATA
  6
CONTINUOUS
 62
     7
 10
-18.00537904078147
 20
250.0
 30
0.0
 11
-18.00537904078147
 21
233.0
 31
0.0
  0
LINE
  5
128
  8
DATA
  6
CONTINUOUS
 62
     7
 10
-26.00537904078147
 20
230.0
 30
0.0
 11
-21.005379040781481
 21
230.0
 31
0.0
  0
ARC
  5
129
  8
DATA
  6
CONTINUOUS
 62
     7
 10
-26.005379040781481
 20
233.0
 30
0.0
 40
3.0
 50
180.0
 51
270.0
  0
ARC
  5
12A
  8
DATA
  6
CONTINUOUS
 62
     7
 10
-21.005379040781481
 20
233.0
 30
0.0
 40
3.0
 50
270.0
 51
0.0
  0
LINE
  5
12B
  8
DATA
  6
CONTINUOUS
 62
     7
 10
-54.503589921966707
 20
230.0
 30
0.0
 11
54.492831840403767
 21
230.0
 31
0.0
  0
ARC
  5
12C
  8
DATA
  6
CONTINUOUS
 62
     7
 10
-24.809940704227429
 20
234.89673976186401
 30
0.0
 40
25.0
 50
235.7814337723326
 51
269.99999999999989
  0
ARC
  5
12D
  8
DATA
  6
CONTINUOUS
 62
     7
 10
24.809811495028288
 20
234.89673976186401
 30
0.0
 40
24.999999999999989
 50
270.0
 51
304.17405842975518
  0
TEXT
  5
12E
  8
DATA
 62
     7
 10
8.7729697633199795
 20
223.6986774035841
 30
0.0
 40
8.9586263020833332
  1
AKG
 50
180.0
 41
0.7
 11
8.7729697633199777
 21
214.74005110150071
 31
0.0
 73
     3
  0
CIRCLE
  5
12F
  8
DATA
  6
CONTINUOUS
 62
     7
 10
27.49283184040377
 20
222.0
 30
0.0
 40
4.5
  0
CIRCLE
  5
130
  8
DATA
  6
CONTINUOUS
 62
     7
 10
27.49283184040377
 20
222.0
 30
0.0
 40
1.75
  0
LINE
  5
131
  8
DATA
  6
CONTINUOUS
 62
     7
 10
31.99283184040377
 20
222.0
 30
0.0
 11
29.24283184040377
 21
221.99999999999699
 31
0.0
  0
LINE
  5
132
  8
DATA
  6
CONTINUOUS
 62
     7
 10
25.74283184040377
 20
221.99999999999329
 30
0.0
 11
22.99283184040377
 21
221.99999999999031
 31
0.0
  0
LINE
  5
133
  8
DATA
  6
CONTINUOUS
 62
     7
 10
-27.005379040781481
 20
250.0
 30
0.0
 11
-20.005379040781481
 21
250.0
 31
0.0
  0
LINE
  5
134
  8
DATA
  6
CONTINUOUS
 62
     7
 10
-27.005379040781481
 20
248.0
 30
0.0
 11
-20.005379040781481
 21
248.0
 31
0.0
  0
ARC
  5
135
  8
DATA
  6
CONTINUOUS
 62
     7
 10
35.178082387983856
 20
219.22196107114129
 30
0.0
 40
1.3200000000000069
 50
180.0
 51
0.0
  0
ARC
  5
136
  8
DATA
  6
CONTINUOUS
 62
     7
 10
35.178082387983878
 20
220.94287930557701
 30
0.0
 40
1.3199999999999861
 50
0.0000000000006253
 51
180.0
  0
LINE
  5
137
  8
DATA
  6
CONTINUOUS
 62
     7
 10
33.858082387983863
 20
219.22196107114129
 30
0.0
 11
33.858082387983863
 21
220.94287930557701
 31
0.0
  0
LINE
  5
138
  8
DATA
  6
CONTINUOUS
 62
     7
 10
36.49808238798385
 20
220.94287930557701
 30
0.0
 11
36.49808238798385
 21
219.22196107114129
 31
0.0
  0
ARC
  5
139
  8
DATA
  6
CONTINUOUS
 62
     7
 10
35.178082387983778
 20
221.16554371153239
 30
0.0
 40
1.76302772615447
 50
11.75709309590567
 51
168.24290690409481
  0
LINE
  5
13A
  8
DATA
  6
CONTINUOUS
 62
     7
 10
35.178082387983771
 20
222.92857143768691
 30
0.0
 11
35.178082387983771
 21
224.51126695885259
 31
0.0
  0
LINE
  5
13B
  8
DATA
  6
CONTINUOUS
 62
     7
 10
36.778082387983773
 20
224.51126695885259
 30
0.0
 11
33.57808238798377
 21
224.51126695885259
 31
0.0
  0
ARC
  5
13C
  8
DATA
  6
CONTINUOUS
 62
     7
 10
51.699498879088537
 20
216.6562082063416
 30
0.0
 40
4.9999999999998987
 50
129.9647024970009
 51
146.7433893782738
  0
ARC
  5
13D
  8
DATA
  6
CONTINUOUS
 62
     7
 10
-51.710256960651677
 20
216.6562082063414
 30
0.0
 40
5.0000000000001377
 50
33.256610621727148
 51
50.035297502998809
  0
LINE
  5
13E
  8
DATA
  6
CONTINUOUS
 62
     7
 10
148.0
 20
103.9907169121572
 30
0.0
 11
148.0
 21
100.24646371051411
 31
0.0
  0
LINE
  5
13F
  8
DATA
  6
CONTINUOUS
 62
     7
 10
250.10603338848159
 20
0.0
 30
0.0
 11
249.980982897285
 21
0.0
 31
0.0
  0
ARC
  5
140
  8
DATA
  6
CONTINUOUS
 62
     7
 10
249.980982897285
 20
302.13870505744671
 30
0.0
 40
302.13873093566821
 50
265.69761942693373
 51
274.3104720903446
  0
ARC
  5
141
  8
DATA
  6
CONTINUOUS
 62
     7
 10
229.1899913357461
 20
25.780946247381522
 30
0.0
 40
24.999999999997399
 50
184.4148132487268
 51
265.69761942694009
  0
ARC
  5
142
  8
DATA
  6
CONTINUOUS
 62
     7
 10
210.60576533601059
 20
126.9347329194924
 30
0.0
 40
14.99999999999908
 50
101.9763204658003
 51
184.41481324872689
  0
LINE
  5
143
  8
DATA
  6
CONTINUOUS
 62
     7
 10
195.65027207646941
 20
125.78008086636621
 30
0.0
 11
204.26416923651169
 21
23.856526158837859
 31
0.0
  0
ARC
  5
144
  8
DATA
  6
CONTINUOUS
 62
     7
 10
271.02207544121723
 20
25.780946247381522
 30
0.0
 40
24.99999999999741
 50
274.30238057305991
 51
355.58518675127328
  0
ARC
  5
145
  8
DATA
  6
CONTINUOUS
 62
     7
 10
289.60630144095262
 20
126.9347329194924
 30
0.0
 40
14.999999999999069
 50
355.58518675127328
 51
78.023679534199687
  0
LINE
  5
146
  8
DATA
  6
CONTINUOUS
 62
     7
 10
304.56179470049381
 20
125.78008086636621
 30
0.0
 11
295.94789754045149
 21
23.856526158837859
 31
0.0
  0
ARC
  5
147
  8
DATA
  6
CONTINUOUS
 62
     7
 10
250.10603338848159
 20
-62.930227077367419
 30
0.0
 40
208.93022706805371
 50
78.231523188015544
 51
101.7684768119845
  0
LINE
  5
148
  8
DATA
  6
CONTINUOUS
 62
     7
 10
100.0
 20
0.0
 30
0.0
 11
112.6345615026387
 21
1.804937357519832
 31
0.0
  0
ARC
  5
149
  8
DATA
  6
CONTINUOUS
 62
     7
 10
-357.30740548364258
 20
49.477778055243867
 30
0.0
 40
509.53315820379021
 50
8.2480460696610773
 51
10.63967702238763
  0
ARC
  5
14A
  8
DATA
  6
CONTINUOUS
 62
     7
 10
-0.4060804550454691
 20
94.691454714204156
 30
0.0
 40
148.51000922826211
 50
322.79247717727321
 51
2.1436456567455471
  0
ARC
  5
14B
  8
DATA
  6
CONTINUOUS
 62
     7
 10
111.5031906527402
 20
9.7245333068093203
 30
0.0
 40
8.0000000000001563
 50
278.13010235415612
 51
322.79247717727219
  0
ARC
  5
14C
  8
DATA
  6
CONTINUOUS
 62
     7
 10
47.000000000002821
 20
108.0854842298463
 30
0.0
 40
100.9999999999971
 50
0.0
 51
8.2480460696613704
  0
LINE
  5
14D
  8
DATA
  6
CONTINUOUS
 62
     7
 10
148.0
 20
108.0854842298463
 30
0.0
 11
148.0
 21
103.9907169121572
 31
0.0
  0
LINE
  5
14E
  8
DATA
  6
CONTINUOUS
 62
     7
 10
100.0
 20
144.2194771869973
 30
0.0
 11
105.5245757580881
 21
144.2194771869973
 31
0.0
  0
LINE
  5
14F
  8
DATA
  6
CONTINUOUS
 62
     7
 10
100.0
 20
144.2194771869973
 30
0.0
 11
114.4217818109525
 21
144.2194771869973
 31
0.0
  0
LINE
  5
150
  8
DATA
  6
CONTINUOUS
 62
     7
 10
115.42818813241691
 20
144.39332320744899
 30
0.0
 11
119.451811867583
 21
145.82615397023449
 31
0.0
  0
LINE
  5
151
  8
DATA
  6
CONTINUOUS
 62
     7
 10
120.4582181890475
 20
145.99999999068621
 30
0.0
 11
140.51729696106719
 21
145.99999999068561
 31
0.0
  0
ARC
  5
152
  8
DATA
  6
CONTINUOUS
 62
     7
 10
140.51729696106719
 20
142.99999999068621
 30
0.0
 40
3.000000000000036
 50
10.639677022388
 51
90.0
  0
ARC
  5
153
  8
DATA
  6
CONTINUOUS
 62
     7
 10
114.4217818109525
 20
147.21947718699721
 30
0.0
 40
3.0
 50
269.99999999999989
 51
289.6010463521871
  0
ARC
  5
154
  8
DATA
  6
CONTINUOUS
 62
     7
 10
120.4582181890474
 20
142.99999999068621
 30
0.0
 40
3.0
 50
89.999999999998181
 51
109.6010463521871
  0
LINE
  5
155
  8
DATA
  6
CONTINUOUS
 62
     7
 10
97.5
 20
16.971042348527181
 30
0.0
 11
99.499999999999986
 21
16.971042348527181
 31
0.0
  0
LINE
  5
156
  8
DATA
  6
CONTINUOUS
 62
     7
 10
97.5
 20
9.3710423485271974
 30
0.0
 11
97.5
 21
16.971042348527181
 31
0.0
  0
LINE
  5
157
  8
DATA
  6
CONTINUOUS
 62
     7
 10
99.499999999999986
 20
9.3710423485271974
 30
0.0
 11
97.5
 21
9.3710423485271974
 31
0.0
  0
LINE
  5
158
  8
DATA
  6
CONTINUOUS
 62
     7
 10
99.499999999999986
 20
17.821042348527168
 30
0.0
 11
100.0
 21
17.821042348527168
 31
0.0
  0
LINE
  5
159
  8
DATA
  6
CONTINUOUS
 62
     7
 10
99.499999999999986
 20
8.5210423485272031
 30
0.0
 11
99.499999999999986
 21
17.821042348527168
 31
0.0
  0
LINE
  5
15A
  8
DATA
  6
CONTINUOUS
 62
     7
 10
100.0
 20
8.5210423485272031
 30
0.0
 11
99.499999999999986
 21
8.5210423485272031
 31
0.0
  0
LINE
  5
15B
  8
DATA
  6
CONTINUOUS
 62
     7
 10
97.5
 20
131.97104234852719
 30
0.0
 11
99.499999999999986
 21
131.97104234852719
 31
0.0
  0
LINE
  5
15C
  8
DATA
  6
CONTINUOUS
 62
     7
 10
97.5
 20
124.3710423485272
 30
0.0
 11
97.5
 21
131.97104234852719
 31
0.0
  0
LINE
  5
15D
  8
DATA
  6
CONTINUOUS
 62
     7
 10
99.499999999999986
 20
124.3710423485272
 30
0.0
 11
97.5
 21
124.3710423485272
 31
0.0
  0
LINE
  5
15E
  8
DATA
  6
CONTINUOUS
 62
     7
 10
99.499999999999986
 20
132.8210423485271
 30
0.0
 11
100.0
 21
132.8210423485271
 31
0.0
  0
LINE
  5
15F
  8
DATA
  6
CONTINUOUS
 62
     7
 10
99.499999999999986
 20
123.5210423485272
 30
0.0
 11
99.499999999999986
 21
132.8210423485271
 31
0.0
  0
LINE
  5
160
  8
DATA
  6
CONTINUOUS
 62
     7
 10
100.0
 20
123.5210423485272
 30
0.0
 11
99.499999999999986
 21
123.5210423485272
 31
0.0
  0
ARC
  5
161
  8
DATA
  6
CONTINUOUS
 62
     7
 10
-927.30778026648466
 20
251.46155605329699
 30
0.0
 40
1053.060172699863
 50
347.30277336361149
 51
354.25232414096291
  0
ARC
  5
162
  8
DATA
  6
CONTINUOUS
 62
     7
 10
-150.27353899602269
 20
112.95918758404621
 30
0.0
 40
289.83649755840662
 50
338.58817370342717
 51
359.74314295259938
  0
LINE
  5
163
  8
DATA
  6
CONTINUOUS
 62
     7
 10
146.44688865109879
 20
125.99999999068621
 30
0.0
 11
140.95154158541351
 21
116.7037750560047
 31
0.0
  0
ARC
  5
164
  8
DATA
  6
CONTINUOUS
 62
     7
 10
149.55994561546609
 20
111.6150247128093
 30
0.0
 40
9.9999999999999112
 50
149.4110746410737
 51
179.74314295259961
  0
LINE
  5
165
  8
DATA
  6
CONTINUOUS
 62
     7
 10
217.0
 20
20.0
 30
0.0
 11
283.0
 21
20.0
 31
0.0
  0
LINE
  5
166
  8
DATA
  6
CONTINUOUS
 62
     7
 10
217.30000000000001
 20
120.0
 30
0.0
 11
259.59167308680401
 21
120.0
 31
0.0
  0
LINE
  5
167
  8
DATA
  6
CONTINUOUS
 62
     7
 10
215.5
 20
21.5
 30
0.0
 11
215.5
 21
134.84108354691179
 31
0.0
  0
LINE
  5
168
  8
DATA
  6
CONTINUOUS
 62
     7
 10
284.5
 20
21.5
 30
0.0
 11
284.5
 21
122.8
 31
0.0
  0
LINE
  5
169
  8
DATA
  6
CONTINUOUS
 62
     7
 10
217.30000000000001
 20
20.300000004470348
 30
0.0
 11
282.69999999999999
 21
20.300000004470348
 31
0.0
  0
LINE
  5
16A
  8
DATA
  6
CONTINUOUS
 62
     7
 10
215.80000000000001
 20
21.800000004470348
 30
0.0
 11
215.80000000000001
 21
118.5
 31
0.0
  0
LINE
  5
16B
  8
DATA
  6
CONTINUOUS
 62
     7
 10
284.19999999999999
 20
21.800000004470348
 30
0.0
 11
284.19999999999999
 21
122.5
 31
0.0
  0
CIRCLE
  5
16C
  8
DATA
  6
CONTINUOUS
 62
     7
 10
221.000482205054
 20
13.17104234852718
 30
0.0
 40
3.8000000000000109
  0
CIRCLE
  5
16D
  8
DATA
  6
CONTINUOUS
 62
     7
 10
221.000482205054
 20
13.17104234852718
 30
0.0
 40
4.6500000000000048
  0
CIRCLE
  5
16E
  8
DATA
  6
CONTINUOUS
 62
     7
 10
279.00048220505403
 20
13.17104234852718
 30
0.0
 40
3.8000000000000109
  0
CIRCLE
  5
16F
  8
DATA
  6
CONTINUOUS
 62
     7
 10
279.00048220505403
 20
13.17104234852718
 30
0.0
 40
4.6500000000000048
  0
CIRCLE
  5
170
  8
DATA
  6
CONTINUOUS
 62
     7
 10
208.49236184700769
 20
128.17104234852721
 30
0.0
 40
3.8000000000000109
  0
CIRCLE
  5
171
  8
DATA
  6
CONTINUOUS
 62
     7
 10
208.49236184700769
 20
128.17104234852721
 30
0.0
 40
4.6500000000000048
  0
CIRCLE
  5
172
  8
DATA
  6
CONTINUOUS
 62
     7
 10
291.4923618470076
 20
128.17104234852721
 30
0.0
 40
3.8000000000000109
  0
CIRCLE
  5
173
  8
DATA
  6
CONTINUOUS
 62
     7
 10
291.4923618470076
 20
128.17104234852721
 30
0.0
 40
4.6500000000000048
  0
LINE
  5
174
  8
DATA
  6
CONTINUOUS
 62
     7
 10
267.40832691319599
 20
124.0
 30
0.0
 11
282.69999999999999
 21
124.0
 31
0.0
  0
LINE
  5
175
  8
DATA
  6
CONTINUOUS
 62
     7
 10
261.25577367547959
 20
120.5038491169864
 30
0.0
 11
265.7442263245203
 21
123.4961508830135
 31
0.0
  0
POLYLINE
  5
176
  8
DATA
  6
CONTINUOUS
 62
     7
 66
     1
 10
0.0
 20
0.0
 30
0.0
 70
   129
  0
VERTEX
  5
2CA
  8
DATA
  6
CONTINUOUS
 62
     7
 10
230.9954102324086
 20
110.0
 30
0.0
  0
VERTEX
  5
2CB
  8
DATA
  6
CONTINUOUS
 62
     7
 10
268.99541023240857
 20
110.0
 30
0.0
  0
VERTEX
  5
2CC
  8
DATA
  6
CONTINUOUS
 62
     7
 10
268.99541023240857
 20
110.0
 30
0.0
 42
-0.4142135623730951
  0
VERTEX
  5
2CD
  8
DATA
  6
CONTINUOUS
 62
     7
 10
269.99541023240857
 20
109.0
 30
0.0
  0
VERTEX
  5
2CE
  8
DATA
  6
CONTINUOUS
 62
     7
 10
269.99541023240857
 20
85.999999999999986
 30
0.0
  0
VERTEX
  5
2CF
  8
DATA
  6
CONTINUOUS
 62
     7
 10
269.99541023240857
 20
85.999999999999986
 30
0.0
 42
-0.4142135623730951
  0
VERTEX
  5
2D0
  8
DATA
  6
CONTINUOUS
 62
     7
 10
268.99541023240857
 20
84.999999999999986
 30
0.0
  0
VERTEX
  5
2D1
  8
DATA
  6
CONTINUOUS
 62
     7
 10
230.9954102324086
 20
85.0
 30
0.0
  0
VERTEX
  5
2D2
  8
DATA
  6
CONTINUOUS
 62
     7
 10
230.9954102324086
 20
85.0
 30
0.0
 42
-0.4142135623730868
  0
VERTEX
  5
2D3
  8
DATA
  6
CONTINUOUS
 62
     7
 10
229.9954102324086
 20
86.0
 30
0.0
  0
VERTEX
  5
2D4
  8
DATA
  6
CONTINUOUS
 62
     7
 10
229.9954102324086
 20
109.0
 30
0.0
  0
VERTEX
  5
2D5
  8
DATA
  6
CONTINUOUS
 62
     7
 10
229.9954102324086
 20
109.0
 30
0.0
 42
-0.4142135623730794
  0
VERTEX
  5
2D6
  8
DATA
  6
CONTINUOUS
 62
     7
 10
230.9954102324086
 20
110.0
 30
0.0
  0
SEQEND
  5
2D7
  8
DATA
  6
CONTINUOUS
 62
     7
  0
LINE
  5
185
  8
DATA
  6
CONTINUOUS
 62
     7
 10
234.4954102324086
 20
90.0
 30
0.0
 11
265.49541023240857
 21
90.0
 31
0.0
  0
LINE
  5
186
  8
DATA
  6
CONTINUOUS
 62
     7
 10
234.4954102324086
 20
105.0
 30
0.0
 11
265.49541023240857
 21
105.0
 31
0.0
  0
LINE
  5
187
  8
DATA
  6
CONTINUOUS
 62
     7
 10
233.4954102324086
 20
91.0
 30
0.0
 11
233.4954102324086
 21
104.0
 31
0.0
  0
LINE
  5
188
  8
DATA
  6
CONTINUOUS
 62
     7
 10
266.49541023240857
 20
104.0
 30
0.0
 11
266.49541023240857
 21
91.0
 31
0.0
  0
ARC
  5
189
  8
DATA
  6
CONTINUOUS
 62
     7
 10
234.4954102324086
 20
104.0
 30
0.0
 40
1.0
 50
90.0
 51
180.0
  0
ARC
  5
18A
  8
DATA
  6
CONTINUOUS
 62
     7
 10
234.4954102324086
 20
91.0
 30
0.0
 40
1.0
 50
180.0
 51
270.0
  0
ARC
  5
18B
  8
DATA
  6
CONTINUOUS
 62
     7
 10
265.49541023240857
 20
91.0
 30
0.0
 40
1.0
 50
270.0
 51
0.0
  0
ARC
  5
18C
  8
DATA
  6
CONTINUOUS
 62
     7
 10
265.49541023240857
 20
104.0
 30
0.0
 40
1.0
 50
0.0
 51
90.0
  0
LINE
  5
18D
  8
DATA
  6
CONTINUOUS
 62
     7
 10
280.5
 20
65.0
 30
0.0
 11
278.5
 21
65.0
 31
0.0
  0
LINE
  5
18E
  8
DATA
  6
CONTINUOUS
 62
     7
 10
280.5
 20
73.0
 30
0.0
 11
278.5
 21
73.0
 31
0.0
  0
LINE
  5
18F
  8
DATA
  6
CONTINUOUS
 62
     7
 10
281.5
 20
66.0
 30
0.0
 11
281.5
 21
72.0
 31
0.0
  0
LINE
  5
190
  8
DATA
  6
CONTINUOUS
 62
     7
 10
277.5
 20
66.0
 30
0.0
 11
277.5
 21
72.0
 31
0.0
  0
ARC
  5
191
  8
DATA
  6
CONTINUOUS
 62
     7
 10
278.5
 20
72.0
 30
0.0
 40
1.0
 50
90.0
 51
180.0
  0
ARC
  5
192
  8
DATA
  6
CONTINUOUS
 62
     7
 10
280.5
 20
72.0
 30
0.0
 40
1.0
 50
0.0
 51
90.0
  0
ARC
  5
193
  8
DATA
  6
CONTINUOUS
 62
     7
 10
278.5
 20
66.0
 30
0.0
 40
1.0
 50
180.0
 51
270.0
  0
ARC
  5
194
  8
DATA
  6
CONTINUOUS
 62
     7
 10
280.5
 20
66.0
 30
0.0
 40
1.0
 50
270.0
 51
0.0
  0
CIRCLE
  5
195
  8
DATA
  6
CONTINUOUS
 62
     7
 10
292.60934139011158
 20
80.0
 30
0.0
 40
2.75
  0
LINE
  5
196
  8
DATA
  6
CONTINUOUS
 62
     7
 10
291.35600488785138
 20
80.0
 30
0.0
 11
293.86267789237189
 21
80.0
 31
0.0
  0
LINE
  5
197
  8
DATA
  6
CONTINUOUS
 62
     7
 10
292.60934139011158
 20
78.746663497739704
 30
0.0
 11
292.60934139011158
 21
81.253336502260296
 31
0.0
  0
TEXT
  5
198
  8
DATA
 62
     7
 10
220.71274891416459
 20
115.91954921673241
 30
0.0
 40
2.4432625925286069
  1
OFF MUTE ON
 41
0.7
 11
220.71274891416459
 21
118.362811809261
 31
0.0
 73
     3
  0
LINE
  5
199
  8
DATA
  6
CONTINUOUS
 62
     7
 10
215.5
 20
52.0
 30
0.0
 11
206.5
 21
52.0
 31
0.0
  0
LINE
  5
19A
  8
DATA
  6
CONTINUOUS
 62
     7
 10
215.5
 20
87.0
 30
0.0
 11
206.5
 21
87.0
 31
0.0
  0
LINE
  5
19B
  8
DATA
  6
CONTINUOUS
 62
     7
 10
205.5
 20
53.0
 30
0.0
 11
205.5
 21
86.0
 31
0.0
  0
POLYLINE
  5
19C
  8
DATA
  6
CONTINUOUS
 62
     7
 66
     1
 10
0.0
 20
0.0
 30
0.0
 70
   129
  0
VERTEX
  5
2D8
  8
DATA
  6
CONTINUOUS
 62
     7
 10
204.5
 20
78.0
 30
0.0
  0
VERTEX
  5
2D9
  8
DATA
  6
CONTINUOUS
 62
     7
 10
205.5
 20
78.0
 30
0.0
  0
VERTEX
  5
2DA
  8
DATA
  6
CONTINUOUS
 62
     7
 10
205.5
 20
61.0
 30
0.0
  0
VERTEX
  5
2DB
  8
DATA
  6
CONTINUOUS
 62
     7
 10
204.5
 20
61.0
 30
0.0
  0
VERTEX
  5
2DC
  8
DATA
  6
CONTINUOUS
 62
     7
 10
204.5
 20
61.0
 30
0.0
 42
-0.4142135623730951
  0
VERTEX
  5
2DD
  8
DATA
  6
CONTINUOUS
 62
     7
 10
203.5
 20
62.0
 30
0.0
  0
VERTEX
  5
2DE
  8
DATA
  6
CONTINUOUS
 62
     7
 10
203.5
 20
77.0
 30
0.0
  0
VERTEX
  5
2DF
  8
DATA
  6
CONTINUOUS
 62
     7
 10
203.5
 20
77.000000000000014
 30
0.0
 42
-0.4142135623730971
  0
VERTEX
  5
2E0
  8
DATA
  6
CONTINUOUS
 62
     7
 10
204.5
 20
78.0
 30
0.0
  0
SEQEND
  5
2E1
  8
DATA
  6
CONTINUOUS
 62
     7
  0
LINE
  5
1A7
  8
DATA
  6
CONTINUOUS
 62
     7
 10
211.5
 20
52.0
 30
0.0
 11
211.5
 21
87.0
 31
0.0
  0
POLYLINE
  5
1A8
  8
DATA
  6
CONTINUOUS
 62
     7
 66
     1
 10
0.0
 20
0.0
 30
0.0
 70
   129
  0
VERTEX
  5
2E2
  8
DATA
  6
CONTINUOUS
 62
     7
 10
208.5
 20
79.0
 30
0.0
  0
VERTEX
  5
2E3
  8
DATA
  6
CONTINUOUS
 62
     7
 10
211.5
 20
79.0
 30
0.0
  0
VERTEX
  5
2E4
  8
DATA
  6
CONTINUOUS
 62
     7
 10
211.5
 20
60.0
 30
0.0
  0
VERTEX
  5
2E5
  8
DATA
  6
CONTINUOUS
 62
     7
 10
208.5
 20
60.0
 30
0.0
  0
VERTEX
  5
2E6
  8
DATA
  6
CONTINUOUS
 62
     7
 10
208.5
 20
60.0
 30
0.0
 42
-0.4142135623730868
  0
VERTEX
  5
2E7
  8
DATA
  6
CONTINUOUS
 62
     7
 10
207.5
 20
61.0
 30
0.0
  0
VERTEX
  5
2E8
  8
DATA
  6
CONTINUOUS
 62
     7
 10
207.5
 20
77.999999999999972
 30
0.0
  0
VERTEX
  5
2E9
  8
DATA
  6
CONTINUOUS
 62
     7
 10
207.5
 20
78.000000000000071
 30
0.0
 42
-0.4142135623730806
  0
VERTEX
  5
2EA
  8
DATA
  6
CONTINUOUS
 62
     7
 10
208.5
 20
79.0
 30
0.0
  0
SEQEND
  5
2EB
  8
DATA
  6
CONTINUOUS
 62
     7
  0
LINE
  5
1B3
  8
DATA
  6
CONTINUOUS
 62
     7
 10
216.66167355391261
 20
65.619044671000935
 30
0.0
 11
216.66167355391261
 21
73.380955328999093
 31
0.0
  0
LINE
  5
1B4
  8
DATA
  6
CONTINUOUS
 62
     7
 10
224.84586560710929
 20
70.39442719099992
 30
0.0
 11
219.08193358460909
 21
73.27639320225002
 31
0.0
  0
LINE
  5
1B5
  8
DATA
  6
CONTINUOUS
 62
     7
 10
224.84586560710929
 20
68.60557280900008
 30
0.0
 11
219.08193358460909
 21
65.72360679774998
 31
0.0
  0
LINE
  5
1B6
  8
DATA
  6
CONTINUOUS
 62
     7
 10
217.6347199891091
 20
66.6180339887499
 30
0.0
 11
217.6347199891091
 21
72.3819660112501
 31
0.0
  0
ARC
  5
1B7
  8
DATA
  6
CONTINUOUS
 62
     7
 10
206.5
 20
86.0
 30
0.0
 40
1.0
 50
90.0
 51
180.0
  0
ARC
  5
1B8
  8
DATA
  6
CONTINUOUS
 62
     7
 10
206.5
 20
53.0
 30
0.0
 40
1.0
 50
180.0
 51
270.0
  0
ARC
  5
1B9
  8
DATA
  6
CONTINUOUS
 62
     7
 10
224.3986520116093
 20
69.5
 30
0.0
 40
1.000000000000004
 50
296.56505117707798
 51
63.43494882292201
  0
ARC
  5
1BA
  8
DATA
  6
CONTINUOUS
 62
     7
 10
218.6347199891091
 20
72.3819660112501
 30
0.0
 40
1.000000000000004
 50
63.43494882292201
 51
180.0
  0
ARC
  5
1BB
  8
DATA
  6
CONTINUOUS
 62
     7
 10
218.6347199891091
 20
66.6180339887499
 30
0.0
 40
1.0
 50
180.0
 51
296.56505117707798
  0
CIRCLE
  5
1BC
  8
DATA
  6
CONTINUOUS
 62
     7
 10
208.7602871544394
 20
46.499999999999993
 30
0.0
 40
2.75
  0
LINE
  5
1BD
  8
DATA
  6
CONTINUOUS
 62
     7
 10
207.506950652179
 20
46.499999999999993
 30
0.0
 11
210.01362365669959
 21
46.499999999999993
 31
0.0
  0
LINE
  5
1BE
  8
DATA
  6
CONTINUOUS
 62
     7
 10
208.7602871544394
 20
45.246663497739718
 30
0.0
 11
208.7602871544394
 21
47.753336502260247
 31
0.0
  0
LINE
  5
1BF
  8
DATA
  6
CONTINUOUS
 62
     7
 10
270.7955881476268
 20
144.97307281606089
 30
0.0
 11
270.7955881476268
 21
124.3
 31
0.0
  0
LINE
  5
1C0
  8
DATA
  6
CONTINUOUS
 62
     7
 10
277.79558814762692
 20
144.15702105720209
 30
0.0
 11
277.79558814762692
 21
124.3
 31
0.0
  0
LINE
  5
1C1
  8
DATA
  6
CONTINUOUS
 62
     7
 10
227.5
 20
33.0
 30
0.0
 11
272.5
 21
33.0
 31
0.0
  0
LINE
  5
1C2
  8
DATA
  6
CONTINUOUS
 62
     7
 10
227.5
 20
73.0
 30
0.0
 11
272.5
 21
73.0
 31
0.0
  0
LINE
  5
1C3
  8
DATA
  6
CONTINUOUS
 62
     7
 10
227.5
 20
73.000000000000014
 30
0.0
 11
227.5
 21
33.000000000000007
 31
0.0
  0
LINE
  5
1C4
  8
DATA
  6
CONTINUOUS
 62
     7
 10
272.5
 20
73.000000000000014
 30
0.0
 11
272.5
 21
33.0
 31
0.0
  0
ARC
  5
1C5
  8
DATA
  6
CONTINUOUS
 62
     7
 10
217.30000000000001
 20
21.800000004470348
 30
0.0
 40
1.5
 50
180.0
 51
270.0
  0
ARC
  5
1C6
  8
DATA
  6
CONTINUOUS
 62
     7
 10
217.0
 20
21.5
 30
0.0
 40
1.5
 50
180.0
 51
270.0
  0
ARC
  5
1C7
  8
DATA
  6
CONTINUOUS
 62
     7
 10
282.69999999999999
 20
21.800000004470348
 30
0.0
 40
1.5
 50
270.0
 51
0.0
  0
ARC
  5
1C8
  8
DATA
  6
CONTINUOUS
 62
     7
 10
283.0
 20
21.5
 30
0.0
 40
1.5
 50
270.0
 51
0.0
  0
LINE
  5
1C9
  8
DATA
  6
CONTINUOUS
 62
     7
 10
270.4955881476269
 20
124.3
 30
0.0
 11
270.7955881476268
 21
124.3
 31
0.0
  0
LINE
  5
1CA
  8
DATA
  6
CONTINUOUS
 62
     7
 10
277.79558814762692
 20
124.3
 30
0.0
 11
283.0
 21
124.3
 31
0.0
  0
ARC
  5
1CB
  8
DATA
  6
CONTINUOUS
 62
     7
 10
282.69999999999999
 20
122.5
 30
0.0
 40
1.5
 50
0.0
 51
90.0
  0
ARC
  5
1CC
  8
DATA
  6
CONTINUOUS
 62
     7
 10
283.0
 20
122.8
 30
0.0
 40
1.5
 50
0.0
 51
90.0
  0
ARC
  5
1CD
  8
DATA
  6
CONTINUOUS
 62
     7
 10
250.10603338848159
 20
-69.930227077367405
 30
0.0
 40
208.93022706805371
 50
84.399576383161474
 51
99.183726889981997
  0
LINE
  5
1CE
  8
DATA
  6
CONTINUOUS
 62
     7
 10
270.4955881476269
 20
138.00270884052
 30
0.0
 11
270.4955881476269
 21
124.3
 31
0.0
  0
ARC
  5
1CF
  8
DATA
  6
CONTINUOUS
 62
     7
 10
217.0
 20
134.84108354691179
 30
0.0
 40
1.499999999999974
 50
99.183726889981443
 51
180.0
  0
ARC
  5
1D0
  8
DATA
  6
CONTINUOUS
 62
     7
 10
249.98348390710899
 20
297.5559306974223
 30
0.0
 40
296.09595631695481
 50
265.69761942693373
 51
274.3104720903446
  0
ARC
  5
1D1
  8
DATA
  6
CONTINUOUS
 62
     7
 10
229.60831217680081
 20
26.725327063558542
 30
0.0
 40
24.499999999997449
 50
184.4148132487268
 51
265.69761942694009
  0
ARC
  5
1D2
  8
DATA
  6
CONTINUOUS
 62
     7
 10
211.3957706970601
 20
125.85603800222719
 30
0.0
 40
14.6999999999991
 50
101.9763204658003
 51
184.4148132487268
  0
LINE
  5
1D3
  8
DATA
  6
CONTINUOUS
 62
     7
 10
196.73938730270959
 20
124.7244789901635
 30
0.0
 11
205.18100651955109
 21
24.83939537678576
 31
0.0
  0
ARC
  5
1D4
  8
DATA
  6
CONTINUOUS
 62
     7
 10
270.60375460016252
 20
26.725327063558542
 30
0.0
 40
24.499999999997449
 50
274.30238057305979
 51
355.58518675127328
  0
ARC
  5
1D5
  8
DATA
  6
CONTINUOUS
 62
     7
 10
288.81629607990322
 20
125.85603800222719
 30
0.0
 40
14.6999999999991
 50
355.58518675127328
 51
78.02367953419963
  0
LINE
  5
1D6
  8
DATA
  6
CONTINUOUS
 62
     7
 10
303.4726794742536
 20
124.7244789901635
 30
0.0
 11
295.03106025741209
 21
24.83939537678576
 31
0.0
  0
ARC
  5
1D7
  8
DATA
  6
CONTINUOUS
 62
     7
 10
250.10603338848159
 20
-60.211622794695423
 30
0.0
 40
204.75162252669261
 50
78.231523188015544
 51
82.227799715910479
  0
ARC
  5
1D8
  8
DATA
  6
CONTINUOUS
 62
     7
 10
250.10603338848159
 20
-60.211622794695423
 30
0.0
 40
204.75162252669261
 50
84.969706973169167
 51
101.7684768119844
  0
LINE
  5
1D9
  8
DATA
  6
CONTINUOUS
 62
     7
 10
281.45155483984797
 20
143.63525422977261
 30
0.0
 11
281.45155483984797
 21
142.12642407799521
 31
0.0
  0
LINE
  5
1DA
  8
DATA
  6
CONTINUOUS
 62
     7
 10
268.0591535435326
 20
145.227225970576
 30
0.0
 11
268.0591535435326
 21
143.75139445110699
 31
0.0
  0
ARC
  5
1DB
  8
DATA
  6
CONTINUOUS
 62
     7
 10
217.30000000000001
 20
118.5
 30
0.0
 40
1.5
 50
90.0
 51
180.0
  0
ARC
  5
1DC
  8
DATA
  6
CONTINUOUS
 62
     7
 10
259.59167308680401
 20
123.0
 30
0.0
 40
3.0
 50
270.0
 51
303.69006752597932
  0
ARC
  5
1DD
  8
DATA
  6
CONTINUOUS
 62
     7
 10
267.40832691319599
 20
121.0
 30
0.0
 40
3.0
 50
90.0
 51
123.6900675259793
  0
ARC
  5
1DE
  8
DATA
  6
CONTINUOUS
 62
     7
 10
-5.4311646523125754
 20
-44.058307233559638
 30
0.0
 40
49.778740512382427
 50
211.40875146472439
 51
242.14294564951089
  0
ARC
  5
1DF
  8
DATA
  6
CONTINUOUS
 62
     7
 10
5.440230202022704
 20
-44.058307233559638
 30
0.0
 40
49.778740512382441
 50
297.85705435048902
 51
328.5912485352755
  0
ARC
  5
1E0
  8
DATA
  6
CONTINUOUS
 62
     7
 10
-0.0002242898004567
 20
30.18202913523038
 30
0.0
 40
119.1137381057829
 50
263.11011393756303
 51
276.88988606243697
  0
LINE
  5
1E1
  8
DATA
  6
CONTINUOUS
 62
     7
 10
-7.0399204208393371
 20
-80.0
 30
0.0
 11
8.0719712284081702
 21
-80.0
 31
0.0
  0
LINE
  5
1E2
  8
DATA
  6
CONTINUOUS
 62
     7
 10
14.28884959327851
 20
-88.125
 30
0.0
 11
8.0719712284081702
 21
-80.0
 31
0.0
  0
LINE
  5
1E3
  8
DATA
  6
CONTINUOUS
 62
     7
 10
-8.0827293099711284
 20
-80.0
 30
0.0
 11
8.0719712284081702
 21
-80.0
 31
0.0
  0
LINE
  5
1E4
  8
DATA
  6
CONTINUOUS
 62
     7
 10
-9.0919502354653758
 20
-78.456913440180159
 30
0.0
 11
9.0811921539024194
 21
-78.456913440180159
 31
0.0
  0
LINE
  5
1E5
  8
DATA
  6
CONTINUOUS
 62
     7
 10
17.8867682445733
 20
-89.254391901776941
 30
0.0
 11
9.0811921539023928
 21
-78.456913440180116
 31
0.0
  0
LINE
  5
1E6
  8
DATA
  6
CONTINUOUS
 62
     7
 10
-14.299607674841459
 20
-88.125
 30
0.0
 11
-8.0827293099711284
 21
-80.0
 31
0.0
  0
LINE
  5
1E7
  8
DATA
  6
CONTINUOUS
 62
     7
 10
-17.897526326136258
 20
-89.254391901776941
 30
0.0
 11
-9.0919502354653474
 21
-78.456913440180116
 31
0.0
  0
CIRCLE
  5
1E8
  8
DATA
  6
CONTINUOUS
 62
     7
 10
0.0667538960083789
 20
-87.185307042903233
 30
0.0
 40
1.400000000000005
  0
ARC
  5
1E9
  8
DATA
  6
CONTINUOUS
 62
     7
 10
-0.0053790407814773
 20
-87.819035340879026
 30
0.0
 40
2.7493348775212141
 50
27.8530740564022
 51
152.14692594359781
  0
ARC
  5
1EA
  8
DATA
  6
CONTINUOUS
 62
     7
 10
0.0045327748550648
 20
-87.804081947223594
 30
0.0
 40
3.6592761931780751
 50
35.770120489763649
 51
144.51335563089751
  0
ARC
  5
1EB
  8
DATA
  6
CONTINUOUS
 62
     7
 10
0.0032301314210486
 20
-88.67922257335907
 30
0.0
 40
5.4328533758145321
 50
48.179650331049032
 51
131.9761730444167
  0
CIRCLE
  5
1EC
  8
DATA
  6
CONTINUOUS
 62
     7
 10
0.0
 20
98.999999990686263
 30
0.0
 40
8.5
  0
CIRCLE
  5
1ED
  8
DATA
  6
CONTINUOUS
 62
     7
 10
0.0
 20
98.999999990686263
 30
0.0
 40
11.0
  0
LINE
  5
1EE
  8
DATA
  6
CONTINUOUS
 62
     7
 10
-8.5
 20
-47.000000000000007
 30
0.0
 11
-8.5
 21
-52.348889255187942
 31
0.0
  0
LINE
  5
1EF
  8
DATA
  6
CONTINUOUS
 62
     7
 10
8.5
 20
-47.000000000000007
 30
0.0
 11
8.5
 21
-52.34967706421935
 31
0.0
  0
LINE
  5
1F0
  8
DATA
  6
CONTINUOUS
 62
     7
 10
-8.4999999999999876
 20
-47.0
 30
0.0
 11
8.5
 21
-47.0
 31
0.0
  0
LINE
  5
1F1
  8
DATA
  6
CONTINUOUS
 62
     7
 10
-8.5
 20
250.0
 30
0.0
 11
8.5
 21
250.0
 31
0.0
  0
LINE
  5
1F2
  8
DATA
  6
CONTINUOUS
 62
     7
 10
-8.5
 20
-48.337222313797007
 30
0.0
 11
5.1108075345104416
 21
-47.0
 31
0.0
  0
LINE
  5
1F3
  8
DATA
  6
CONTINUOUS
 62
     7
 10
-8.5
 20
-49.337222313797
 30
0.0
 11
8.5
 21
-47.667021682650777
 31
0.0
  0
LINE
  5
1F4
  8
DATA
  6
CONTINUOUS
 62
     7
 10
-8.5
 20
-50.337222313797007
 30
0.0
 11
8.5
 21
-48.667021682650777
 31
0.0
  0
LINE
  5
1F5
  8
DATA
  6
CONTINUOUS
 62
     7
 10
-8.5
 20
-51.337222313797
 30
0.0
 11
8.5
 21
-49.667021682650777
 31
0.0
  0
LINE
  5
1F6
  8
DATA
  6
CONTINUOUS
 62
     7
 10
-8.5
 20
-52.337222313797007
 30
0.0
 11
8.5
 21
-50.667021682650777
 31
0.0
  0
LINE
  5
1F7
  8
DATA
  6
CONTINUOUS
 62
     7
 10
4.0906845418294324
 20
-52.10022412154251
 30
0.0
 11
8.5
 21
-51.667021682650791
 31
0.0
  0
LINE
  5
1F8
  8
DATA
  6
CONTINUOUS
 62
     7
 10
148.0447684751243
 20
90.499999967890332
 30
0.0
 11
152.99921219110621
 21
90.499999967890332
 31
0.0
  0
LINE
  5
1F9
  8
DATA
  6
CONTINUOUS
 62
     7
 10
148.0
 20
107.4999999678903
 30
0.0
 11
153.00000000013759
 21
107.4999999678903
 31
0.0
  0
LINE
  5
1FA
  8
DATA
  6
CONTINUOUS
 62
     7
 10
148.98754524971531
 20
90.499999967890332
 30
0.0
 11
148.0
 21
100.551648214268
 31
0.0
  0
LINE
  5
1FB
  8
DATA
  6
CONTINUOUS
 62
     7
 10
149.98754524971531
 20
90.499999967890332
 30
0.0
 11
148.317344618569
 21
107.4999999678903
 31
0.0
  0
LINE
  5
1FC
  8
DATA
  6
CONTINUOUS
 62
     7
 10
150.98754524971531
 20
90.499999967890332
 30
0.0
 11
149.317344618569
 21
107.4999999678903
 31
0.0
  0
LINE
  5
1FD
  8
DATA
  6
CONTINUOUS
 62
     7
 10
151.98754524971531
 20
90.499999967890332
 30
0.0
 11
150.317344618569
 21
107.4999999678903
 31
0.0
  0
LINE
  5
1FE
  8
DATA
  6
CONTINUOUS
 62
     7
 10
152.98754524971531
 20
90.499999967890332
 30
0.0
 11
151.317344618569
 21
107.4999999678903
 31
0.0
  0
LINE
  5
1FF
  8
DATA
  6
CONTINUOUS
 62
     7
 10
153.00000000013759
 20
100.55164821286721
 30
0.0
 11
152.317344618569
 21
107.4999999678903
 31
0.0
  0
LINE
  5
200
  8
DATA
  6
CONTINUOUS
 62
     7
 10
153.00000000013759
 20
107.4999999678903
 30
0.0
 11
153.00000000013759
 21
90.501564397600063
 31
0.0
  0
LINE
  5
201
  8
DATA
  6
CONTINUOUS
 62
     7
 10
4.9891524535473204
 20
201.99999955004409
 30
0.0
 11
1.244899251904243
 21
201.99999955004409
 31
0.0
  0
LINE
  5
202
  8
DATA
  6
CONTINUOUS
 62
     7
 10
9.0839197712364257
 20
201.99999955004409
 30
0.0
 11
4.9891524535473204
 21
201.99999955004409
 31
0.0
  0
LINE
  5
203
  8
DATA
  6
CONTINUOUS
 62
     7
 10
-8.5015644907196162
 20
201.95523107491971
 30
0.0
 11
-8.5015644907196162
 21
197.00078735893791
 31
0.0
  0
LINE
  5
204
  8
DATA
  6
CONTINUOUS
 62
     7
 10
8.498435509280398
 20
201.99999955004409
 30
0.0
 11
8.498435509280398
 21
196.99999954990651
 31
0.0
  0
LINE
  5
205
  8
DATA
  6
CONTINUOUS
 62
     7
 10
-8.5015644907196162
 20
201.01245430032881
 30
0.0
 11
1.5500837556581351
 21
201.99999955004409
 31
0.0
  0
LINE
  5
206
  8
DATA
  6
CONTINUOUS
 62
     7
 10
-8.5015644907196162
 20
200.0124543003289
 30
0.0
 11
8.498435509280398
 21
201.6826549314751
 31
0.0
  0
LINE
  5
207
  8
DATA
  6
CONTINUOUS
 62
     7
 10
-8.5015644907196162
 20
199.01245430032881
 30
0.0
 11
8.498435509280398
 21
200.68265493147501
 31
0.0
  0
LINE
  5
208
  8
DATA
  6
CONTINUOUS
 62
     7
 10
-8.5015644907196162
 20
198.01245430032881
 30
0.0
 11
8.498435509280398
 21
199.68265493147501
 31
0.0
  0
LINE
  5
209
  8
DATA
  6
CONTINUOUS
 62
     7
 10
-8.5015644907196162
 20
197.01245430032881
 30
0.0
 11
8.498435509280398
 21
198.68265493147501
 31
0.0
  0
LINE
  5
20A
  8
DATA
  6
CONTINUOUS
 62
     7
 10
1.5500837542573429
 20
196.99999954990651
 30
0.0
 11
8.498435509280398
 21
197.68265493147501
 31
0.0
  0
LINE
  5
20B
  8
DATA
  6
CONTINUOUS
 62
     7
 10
8.498435509280398
 20
196.99999954990651
 30
0.0
 11
-8.5000000610098407
 21
196.99999954990651
 31
0.0
  0
POLYLINE
  5
20C
  8
DATA
  6
CONTINUOUS
 62
     7
 66
     1
 10
0.0
 20
0.0
 30
0.0
 70
     1
  0
VERTEX
  5
2EC
  8
DATA
  6
CONTINUOUS
 62
     7
 10
-2.5
 20
101.49999999068621
 30
0.0
  0
VERTEX
  5
2ED
  8
DATA
  6
CONTINUOUS
 62
     7
 10
2.5
 20
101.49999999068621
 30
0.0
  0
VERTEX
  5
2EE
  8
DATA
  6
CONTINUOUS
 62
     7
 10
2.5
 20
96.499999990686263
 30
0.0
  0
VERTEX
  5
2EF
  8
DATA
  6
CONTINUOUS
 62
     7
 10
-2.5
 20
96.499999990686263
 30
0.0
  0
SEQEND
  5
2F0
  8
DATA
  6
CONTINUOUS
 62
     7
  0
CIRCLE
  5
213
  8
DATA
  6
CONTINUOUS
 62
     7
 10
0.0
 20
98.999999990686263
 30
0.0
 40
5.5
  0
CIRCLE
  5
214
  8
DATA
  6
CONTINUOUS
 62
     7
 10
-1.25
 20
100.24999999068621
 30
0.0
 40
0.2999999999999972
  0
CIRCLE
  5
215
  8
DATA
  6
CONTINUOUS
 62
     7
 10
1.25
 20
100.24999999068621
 30
0.0
 40
0.2999999999999972
  0
CIRCLE
  5
216
  8
DATA
  6
CONTINUOUS
 62
     7
 10
-1.25
 20
97.749999990686263
 30
0.0
 40
0.2999999999999972
  0
CIRCLE
  5
217
  8
DATA
  6
CONTINUOUS
 62
     7
 10
1.25
 20
97.749999990686263
 30
0.0
 40
0.2999999999999972
  0
LINE
  5
218
  8
DATA
  6
CONTINUOUS
 62
     7
 10
-0.75
 20
103.11115216057441
 30
0.0
 11
-0.75
 21
104.4486236701121
 31
0.0
  0
LINE
  5
219
  8
DATA
  6
CONTINUOUS
 62
     7
 10
0.75
 20
103.11115216057441
 30
0.0
 11
-0.75
 21
103.11115216057441
 31
0.0
  0
LINE
  5
21A
  8
DATA
  6
CONTINUOUS
 62
     7
 10
0.75
 20
104.4486236701121
 30
0.0
 11
0.75
 21
103.11115216057441
 31
0.0
  0
LINE
  5
21B
  8
DATA
  6
CONTINUOUS
 62
     7
 10
-24.799376847653878
 20
34.72382720678295
 30
0.0
 11
-32.59984529176198
 21
143.4418653976623
 31
0.0
  0
LINE
  5
21C
  8
DATA
  6
CONTINUOUS
 62
     7
 10
24.79937684765391
 20
34.72382720678295
 30
0.0
 11
32.599724725770351
 21
143.4401850244667
 31
0.0
  0
LINE
  5
21D
  8
DATA
  6
CONTINUOUS
 62
     7
 10
-12.830146071338691
 20
23.58261392262645
 30
0.0
 11
12.83014607133871
 21
23.58261392262645
 31
0.0
  0
ARC
  5
21E
  8
DATA
  6
CONTINUOUS
 62
     7
 10
-12.830146071338691
 20
35.58261392262645
 30
0.0
 40
11.999999999999989
 50
184.1039127435252
 51
270.0
  0
ARC
  5
21F
  8
DATA
  6
CONTINUOUS
 62
     7
 10
12.83014607133871
 20
35.58261392262645
 30
0.0
 40
12.0
 50
270.0
 51
355.89608725647491
  0
LINE
  5
220
  8
DATA
  6
CONTINUOUS
 62
     7
 10
-12.830146071338691
 20
-76.387848738489083
 30
0.0
 11
12.83014607133871
 21
-76.387848738489083
 31
0.0
  0
ARC
  5
221
  8
DATA
  6
CONTINUOUS
 62
     7
 10
-12.830146071338691
 20
-64.387848738489069
 30
0.0
 40
11.999999999999989
 50
205.57793455764391
 51
270.0
  0
ARC
  5
222
  8
DATA
  6
CONTINUOUS
 62
     7
 10
12.83014607133871
 20
-64.387848738489069
 30
0.0
 40
12.0
 50
270.0
 51
334.422065442357
  0
LINE
  5
223
  8
DATA
  6
CONTINUOUS
 62
     7
 10
-31.0386913886007
 20
-55.965239168676177
 30
0.0
 11
-23.654132416095919
 21
-69.56870963302282
 31
0.0
  0
LINE
  5
224
  8
DATA
  6
CONTINUOUS
 62
     7
 10
31.038691388600729
 20
-55.965239168676177
 30
0.0
 11
23.654132416095951
 21
-69.56870963302282
 31
0.0
  0
TEXT
  5
225
  8
DATA
 62
     7
 10
244.00145617342059
 20
-197.08659157045221
 30
0.0
 40
4.8865234374999993
  1
デスクスタンド
 41
0.7
 11
244.00145617342059
 21
-192.2000681329522
 31
0.0
 73
     3
  0
TEXT
  5
226
  8
DATA
 62
     7
 10
-162.49999999999989
 20
-219.30753666666669
 30
0.0
 40
5.7009440104166673
  1
※仕様及び外観は予告なく変更されることがあります。
 41
0.7
 11
-162.49999999999989
 21
-213.60659265625
 31
0.0
 73
     3
  0
TEXT
  5
227
  8
DATA
 62
     7
 10
-162.49999999999989
 20
-226.71587
 30
0.0
 40
5.7009440104166673
  1
　また、同一商品でも若干の個体差があることがあります。ご了承ください。
 41
0.7
 11
-162.49999999999989
 21
-221.0149259895833
 31
0.0
 73
     3
  0
ENDSEC
  0
EOF
